» » »

Weezer - Heart Songs Tabs

Artists:  A B C D E F G H I J K L M N O P Q R S T U V W X Y Z # 

Heart Songs Tabs

(ver. 1) Click to play this song!
Weezer
 Rating:
4/5 (4 votes)
    Heart Songs lessons Tabs too difficult? Try these video lessons and learn fast
                ----------------------------------------------------------------------------
                           The Angel And The One - Weezer
----------------------------------------------------------------------------


Tuning: 1/2 step down

most of it is how the chords are strummed. But for the most part you can play this progression
 for the whole thing and it sounds gorgeous on it's own. Enjoy. Feel free to comment, or hit me
 up if you hear anything that needs changes. =]


Verses/Chorus
eb|---------------------------------------------------------------------------|
Bb|---------------------------------------------------------------------------|
Gb|---------------------------------------------------------------------------|
Db|--3~---------2~--------7~---------------------7~---------------------------|
Ab|--3~---------2~--------5~---------10~---------8~----8-----8-----5-----8----|
Eb|--1~---------0~-------------------8~----------6~----6-----5-----3-----5----|


eb|---------------------------------------------------------------------------|
Bb|---------------------------------------------------------------------------|
Gb|---------------------------------------------------------------------------|
Db|--3~---------2~--------7~---------------------7~---------------------------|
Ab|--3~---------2~--------5~---------10~---------8~----8-----8-----5-----8----|
Eb|--1~---------0~-------------------8~----------6~----6-----5-----3-----5----|

Have Fun!

| /  slide up
| \  slide down
| h  hammer-on
| p  pull-off
| ~  vibrato
| +  harmonic
| x  Mute note
============================================================================
            
Submit corrections

↑ Back to top | Tablatures and chords for acoustic guitar and electric guitar, ukulele, drums are parodies/interpretations of the original songs. You may use it for private study, scholarship, research or language learning purposes only