» » »

Weezer - Burnt Jamb Tabs

Artists:  A B C D E F G H I J K L M N O P Q R S T U V W X Y Z # 

Burnt Jamb Tabs

(ver. 3) Click to play this song!
Weezer
 Rating:
4/5 (4 votes)
                Weezer:      Burndt Jamb			
Normal tuning

e---4-4-4-4-4--4--2-2-2-2-2---5-5-5-5-5--5--4-4-4-4-4----------------------
H---2-2-2-2-2--2--2-2-2-2-2---3-3-3-3-3--3--3-3-3-3-3----------------------
G--------------------------------------------------------------------------
D--------------------------------------------------------------------------
A--------------------------------------------------------------------------
E--------------------------------------------------------------------------


OR:
e---4-4-4-4-4--4--2-2-2-2-2---5-5-5-5-5--5--4-4-4-4-4----------------------
H---2-2-2-2-2-----2-2-2-2-2---3-3-3-3-3-----3-3-3-3-3----------------------
G--------------------------------------------------------------------------
D--------------------------------------------------------------------------
A--------------------------------------------------------------------------
E--------------------------------------------------------------------------
            
Submit corrections

↑ Back to top | Tablatures and chords for acoustic guitar and electric guitar, ukulele, drums are parodies/interpretations of the original songs. You may use it for private study, scholarship, research or language learning purposes only