» » »

Weezer - Anonymous Tabs

Artists:  A B C D E F G H I J K L M N O P Q R S T U V W X Y Z # 

Anonymous Tabs

(ver. 1) Click to play this song!
Weezer
 Rating:
4.3/5 (21 vote)
                [Played along with the piano intro] 
E|--14----------|
B|--------------|
G|------18--16--|
D|--------------|
A|--------------|
E|--------------|

[Chorus] 
E|-----------------------------|
B|--11-11--12-11--9----7----7--|
G|-----------------------------|
D|-----------------------------|
A|-----------------------------|
E|-----------------------------|
    I don't even know your name

E|---------------------------------|
B|7-----16----16---16---14--12--11-|
G|---------------------------------|
D|---------------------------------|
A|---------------------------------|
E|---------------------------------|
  No I don't know the words to say

E|-----------------------------|
B|--11-11-12---11----9-7-7-----|
G|-----------------------------|
D|-----------------------------|
A|-----------------------------|
E|-----------------------------|
    So I call you anonymous

E|------------------|
B|-16--16-16-14--12-|
G|------------------|
D|------------------|
A|------------------|
E|------------------|

[Interlude]  
E|-14------------------------------|
B|------14-14-14--12-12-12--11-----|
G|---------------------------------|
D|---------------------------------|
A|---------------------------------|
E|---------------------------------|            
Submit corrections

↑ Back to top | Tablatures and chords for acoustic guitar and electric guitar, ukulele, drums are parodies/interpretations of the original songs. You may use it for private study, scholarship, research or language learning purposes only