» » »

Wednesday 13 - Skeletons Bass

Artists:  A B C D E F G H I J K L M N O P Q R S T U V W X Y Z # 

Skeletons Bass

(ver. 1) Click to play this song!
Wednesday 13
 Rating:
4/5 (4 votes)


 Skeletons lessons Tabs too difficult? Try these video lessons and learn fast
 
                --------------------------------------------------------------------------
			     Skeletons - Wednesday 13
--------------------------------------------------------------------------


Tuning: Drop C

Bass comes in at 0:24 seconds
Intro
G|-------------------------------------------|
D|-------------------------------------------|
A|-------------------------------------------|
C|3--6-5-3---3--6-5-3---3--6-5-3---8--6-5-3--|x2

Pre Verse
G|----------------|
D|----------------|
A|----------------|
C|3--------3------|

Verse
G|----------------------------|
D|----------------------------|
A|----------------------------|
C|3-----6-----8-----6---86----|x2

Pre Chorus
G|--------------------------------------------|
D|--------------------------------------------|
A|--------------------------------------------|
C|3--6-5-3---3--6-5-3---3--6-5-3---8--6-5-3---|x2

Chorus
G|------------------------------------------------------|
D|------------------------------------------------------|
A|------------------------------------------------------|
C|3-3-3-3-3-3-3-3-6-6-6-6-6-6-6-6--3--6-5-3---3--6-5-3--|

G|------------------------------------------------------------------|
D|------------------------------------------------------------------|
A|--------------------------------1-1-1-1-1-1-1-1-0-0-0-0-0-0-0-0---|
C|3-3-3-3-3-3-3-3-6-6-6-6-6-6-6-6-----------------------------------|

Pre Verse
G|-------------------------------------------|
D|-------------------------------------------|
A|-------------------------------------------|
C|3--6-5-3---3--6-5-3---3--6-5-3---8--6-5-3--|x2

G|--------------------|
D|--------------------|
A|--------------------|
C|3-----------3-------|

Verse
G|---------------------------|
D|---------------------------|
A|---------------------------|
C|3-----6-----8-----6---86---|x2

Pre Chorus
G|--------------------------------------------|
D|--------------------------------------------|
A|--------------------------------------------|
C|3--6-5-3---3--6-5-3---3--6-5-3---8--6-5-3---|x2

Chorus
G|------------------------------------------------------|
D|------------------------------------------------------|
A|------------------------------------------------------|
C|3-3-3-3-3-3-3-3-6-6-6-6-6-6-6-6--3--6-5-3---3--6-5-3--|

G|------------------------------------------------------------------|
D|------------------------------------------------------------------|
A|--------------------------------1-1-1-1-1-1-1-1-0-0-0-0-0-0-0-0---|
C|3-3-3-3-3-3-3-3-6-6-6-6-6-6-6-6-----------------------------------|

Pre Verse
G|--------------------------------------------|
D|--------------------------------------------|
A|--------------------------------------------|
C|3--6-5-3---3--6-5-3---3--6-5-3---8--6-5-3---|x2

Pre Solo
G|---------------------------|
D|---------------------------|
A|---------------------------|
C|3-----6-----8-----6---86---|x2

Solo
G|-----------------------------------------------------------------|
D|-----------------------------------------------------------------|
A|-----------------------------------------------------------------|
C|3-3-3-3-3-3-3-3-6-6-6-6-6-6-6-6-8-8-8-8-8-8-8-8-6-6-6-6-865------|x2

Chorus
G|-------------------------------------------------------|
D|-------------------------------------------------------|
A|-------------------------------------------------------|
C|3-3-3-3-3-3-3-3-6-6-6-6-6-6-6-6--3--6-5-3---3--6-5-3---|

G|------------------------------------------------------------------|
D|------------------------------------------------------------------|
A|--------------------------------1-1-1-1-1-1-1-1-0-0-0-0-0-0-0-0---|
C|3-3-3-3-3-3-3-3-6-6-6-6-6-6-6-6-----------------------------------|

Bridge
G|---------------------------|
D|---------------------------|
A|---------------------------|
C|3-3----6-6----8-8----3-3---|

Outro
G|--------------------------------------------|
D|--------------------------------------------|
A|--------------------------------------------|
C|3--6-5-3---3--6-5-3---3--6-5-3---8--6-5-3---|x3

Last Note
G|------------|
D|------------|
A|------------|
C|3-----------|

| /  slide up
| \  slide down
| h  hammer-on
| p  pull-off
| ~  vibrato
| +  harmonic
| x  Mute note
=============================================================
            
Submit corrections



        Skeletons lessons Hard to play? Try these video lessons and learn fast Skeletons lessons
        
↑ Back to top | Tablatures and chords for acoustic guitar and electric guitar, ukulele, drums are parodies/interpretations of the original songs. You may use it for private study, scholarship, research or language learning purposes only