» » »

Wednesday 13 - Bullet Named Christ Tabs

Artists:  A B C D E F G H I J K L M N O P Q R S T U V W X Y Z # 

Bullet Named Christ Tabs

(ver. 1) Click to play this song!
Wednesday 13
 Rating:
3.7/5 (6 votes)


 Bullet Named Christ lessons Tabs too difficult? Try these video lessons and learn fast
 
                
i saw ppl only had the intro on the song,well heres the whole thing,even the deep 
horn in the background/ tuning ( Eb Ab Db Gb Bb Eb
i got all of it right


  |----------------|
  |--11-11-9-7-9---|
  |----------------|  x8
  |----------------|
  |----------------|
  |----------------|


  |----------------------------------------------|
  |--11-11-9-11----11-9-12---12-11-9---9-11------|
  |----------------------------------------------|  x4
  |----------------------------------------------|
  |----------------------------------------------|
  |----------------------------------------------|


  |----------------|
  |--11-11-9-7-9---|
  |----------------|  x4
  |----------------|
  |----------------|
  |----------------|


  |----------------------------------------------|
  |--11-11-9-11----11-9-12---12-11-9----9-11-----|
  |----------------------------------------------|  x4
  |----------------------------------------------|
  |----------------------------------------------|
  |----------------------------------------------|


     ( bass horn)

  |----------------|
  |----------------|
  |----------------|
  |----------------|   x5  ( each note carries out for a while)
  |----------------|
  |--6-5-4-3-------|

  |----------------|
  |--11-11-9-7-9---|
  |----------------|   goes on till end of the song
  |----------------|
  |----------------|
  |----------------|
            
Submit corrections



        Bullet Named Christ lessons Hard to play? Try these video lessons and learn fast Bullet Named Christ lessons
        
↑ Back to top | Tablatures and chords for acoustic guitar and electric guitar, ukulele, drums are parodies/interpretations of the original songs. You may use it for private study, scholarship, research or language learning purposes only