Home » W » We Changed Our Name »

We Changed Our Name - Respire Tabs

Artists:  A B C D E F G H I J K L M N O P Q R S T U V W X Y Z # 

Respire Tabs

(ver. 1) Click to play this song!
We Changed Our Name
Tuning: Drop B

Verse 1:

C#|------------------------------------|
G#|------------------------------------|
E |------------------------------------| x4
B |------------------------------------|
F#|-6-------5--------------------------|
B |---00-00---00-00-8-0-7-0-3-0-2-0-3--|

C#|----------------------------------|
G#|----------------------------------|
E |----------------------------------|
B |----------------------------------|
F#|----------------------------------|
B |-1-11-11-1-11-11-0-00-00-0-00-00--|

Verse 2:

C#|------------------------------|
G#|------------------------------|
E |------------------------------|
B |------------------------------| x6 (leave some of the first notes on 5th time)
F#|---------------------6--------|
B |-0-00-00-0-00-00---0---00-00--|

Chorus:

C#|--------------------------------------------------------------------------------------------|
G#|--------------------------------------------------------------------------------------------|
E |---------------------7-7-7-------7-7-7-7-7-7-7----------------------------------------------|
B |-3------5------0-0-0-------0-0-0---------------3------5-------------------------------------|
F#|-3-(x8)-5-(x8)-0-0-0-5-5-5-0-0-0-5-5-5-5-5-5-5-3-(x8)-5-(x8)-----------------------5--------|
B |-3------5------0-0-0-------0-0-0---------------3------5------0-00-00-0-00-00-0---0---00-00--|

C#|--------------------------------------------------------------|
G#|--------------------------------------------------------------|
E |---------------------7-7-7-------7-7-7-7-7-7-7----------------|
B |-3------5------0-0-0-------0-0-0---------------3------5-------|
F#|-3-(x8)-5-(x8)-0-0-0-5-5-5-0-0-0-5-5-5-5-5-5-5-3-(x8)-5-(x8)--|
B |-3------5------0-0-0-------0-0-0---------------3------5-------|

Verse 2 x4 (but beware of some missing notes on 1st time!)

Break:

C#|------------------------------------------------------|
G#|------------------------------------------------------|
E |------------------------------------------------------|
B |-3-1-0--0-0-0--3-5-1-----------------0-0-0-0-0-0-0-0--|
F#|-3-1-0--0-0-0--3-5-1-----------------0-0-0-0-0-0-0-0--|
B |-3-1-0--0-0-0--3-5-1-0-0-0-0-0-0-0-0-0-0-0-0-0-0-0-0--|

Chorus

Break 2:

C#|--------------------------------------------|
G#|--------------------------------------------|
E |--------------------------------------------|
B |--------------------------------------------|
F#|--------------------------------------------|
B |-0-00-00--0-00-00--0-00-00-0-00-00-0-00-00--|

C#|------------------------------------------------------------------------------------------|
G#|------------------------------------------------------------------------------------------|
E |------------------------------------------------------------------------------------------|
B |---------8-7-5-----------------8-7-5-----------------8-7-5-----------------8-7-5----------|
F#|---------------8-7-5-8---------------8-7-5-8---------------8-7-5-8---------------8-7-5-8--|
B |-0-00-00---------------1-11-11---------------2-22-22---------------3-33-33----------------|

C#|------------------------------------------------------------------------------------------|
G#|-------------------------------------------------------------------------------------5-6--|
E |---------------------------------------------------------------------------------5-7------|
B |---------8-7-5-----------------8-7-5-----------------8-7-5-----------------5-7-8----------|
F#|---------------8-7-5-8---------------8-7-5-8---------------8-7-5-8------------------------|
B |-0-00-00---------------1-11-11---------------2-22-22---------------3-33-33----------------|

Bridge:

C#|------------------------------------------------------------------------|
G#|------------------------------------------------------------------------|
E |------------------------------------------------------------------------|
B |------------------------------------------------------------------------|
F#|-6-------5-----------------------------6-----5--------------------------|
B |---00-00---00-00-8-0-7-0-3-0-2-0-3-------0-0---00-00-8-0-7-0-3-0-2-0-3--|

C#|------------------------------------------------------------------------|
G#|------------------------------------------------------------------------|
E |------------------------------------------------------------------------|
B |------------------------------------------------------------------------|
F#|-6-------5--------------------------------------------------------------|
B |---00-00---00-00-8-0-7-0-3-0-2-0-3-----------0-00-00-8-0-7-0-3-0-2-0-3--|

Chorus

End:

C#|----------|
G#|----------|
E |----------|
B |----------|
F#|----------|
B |-0-00-00--|
            
Submit corrections

↑ Back to top | Tablatures and chords for acoustic guitar and electric guitar, ukulele, drums are parodies/interpretations of the original songs. You may use it for private study, scholarship, research or language learning purposes only