» » »

We Butter The Bread With Butter - Breekachu Tabs

Artists:  A B C D E F G H I J K L M N O P Q R S T U V W X Y Z # 

Breekachu Tabs

(ver. 1) Click to play this song!
We Butter The Bread With Butter
 Rating:
3.3/5 (26 votes)

 Breekachu lessons Tabs too difficult? Try these video lessons and learn fast
 
                Intro Synth (continues through verse)
|------------------------------------------------------------------------------------------| x4
|------------------------------------------------------------------------------------------|
|---9---9---9---9----12----12---12----12----14----14----14----14---8---8---8---8-----------|
|------------------------------------------------------------------------------------------|
|-7---7---7---7---10----10----10---10----12----12----12----12----6---6---6---6-------------|
|------------------------------------------------------------------------------------------|

Verse Part                              
|------------------------------------------------------------------------------------------| x2
|--------------------------------Ones not elevens------------------------------------------|
|------------------------------------------------------------------------------------------|
|-2-2----2-55-55-5-5----7-7----7-11-11-1-1--1--1-------------------------------------------|
|-2-2----2-55-55-5-5----7-7----7-11-11-1-1--1--1-------------------------------------------|
|-2-2----2-55-55-5-5----7-7----7-11-11-1-1--1--1-------------------------------------------|

Then Synth an octave up
|---12---12---12---12----15----15----15----15----17----17----17----17---11---11---11---11--| x1
|------------------------------------------------------------------------------------------|
|-9----9----9----9----12----12----12----12----14----14----14----14----8----8----8----8-----|
|------------------------------------------------------------------------------------------|
|------------------------------------------------------------------------------------------|
|------------------------------------------------------------------------------------------|


Play Verse Part x2
(Synth in Background)

Tremelo Part
|------------------------------------------------------------------------------------------| x2
|------------------------------------------------------------------------------------------|
|------------------------------------------------------------------------------------------|
|------------------------------------------------------------------------------------------|
|-7tr------7tr-5tr------5tr-4tr------4tr-6tr------6tr--------------------------------------|
|------2tr----------5tr----------7tr----------9tr------------------------------------------|



Tapping/Pulloff Part (repeat main part twice then play end part)
|-7p0-8p0-5p0-7p0-8p0-10p0-8p0-7p0-|-8p0-5p0-7p0-3p0-5p0-2p0-7p0-00--|---------------------|
|------------------------------------------------------------------------------------------|
|------------------------------------------------------------------------------------------|
|------------------------------------------------------------------------------------------|
|------------------------------------------------------------------------------------------|
|------------------------------------------------------------------------------------------|
|                                                                    End part
|-3p0-2p0-3p0-2p0-7p0-5p0-10p0-8p0-|-7p0-8p0-7p0-5p0-7p0-5p0-3p0-2p0-|--3p0-2p0-3p0-2p0 etc|
|--------------------------------------------------------------------|---------------------|
|--------------------------------------------------------------------|---------------------|
|--------------------------------------------------------------------|---------------------|
|--------------------------------------------------------------------|---------------------|
|--------------------------------------------------------------------|---------------------|
Rhythm
|------------------------------------------------------------------------------------------|
|------------------------------------------------------------------------------------------|
|------------------------------------------------------------------------------------------|
|-10~~----12~~----2~~~----5~~~----10~~----0~~~----2~~~----5~~~----10~~----7~~~-------------|
|-10~~----12~~----2~~~----5~~~----10~~----0~~~----2~~~----5~~~----10~~----7~~~-------------|
|-10~~----12~~----2~~~----5~~~----10~~----0~~~----2~~~----5~~~----10~~----7~~~-------------|            
Submit corrections


        Breekachu lessons Hard to play? Try these video lessons and learn fast Breekachu lessons
        
↑ Back to top | Tablatures and chords for acoustic guitar and electric guitar, ukulele, drums are parodies/interpretations of the original songs. You may use it for private study, scholarship, research or language learning purposes only