» » »

Weatherbox - Trippin' The Life Fantastic Tabs

Artists:  A B C D E F G H I J K L M N O P Q R S T U V W X Y Z # 

Trippin' The Life Fantastic Tabs

(ver. 1) Click to play this song!
Weatherbox
 Rating:
4/5 (4 votes)


 Trippin' The Life Fantastic lessons Tabs too difficult? Try these video lessons and learn fast
 
                Trippin' the Life Fantastic
Weatherbox

I think I'm one of the first to tab this.  I don't think its that bad of a tab, but for 
not 100%.  Mess around with it if you like, and please note that this is how I play it, 
is by no means the way Brian plays it.

DROP D TUNING

Intro:

|------------------------|
|--------------2---------| x2
|---2---4--2---2---2b(4)-|
|-4---4----4-------------|
|------------------------|
|------------------------|


Verse:

|------------------------------------------|
|---------2-2------------------------------|
|---2---4-----2-2---4--2----2b(4)---2b(4)--| x2
|-4---4------------------4-----------------|
|------------------------------------------|
|------------------------------------------|

then you repeat the intro again


You repeat the WHOLE VERSE twice

Build up:

|--------------------------|
|--------------------------|
|---2---4--2-4-6-9-11-14/--| x2
|-4---4--------------------|
|--------------------------|
|--------------------------|


Breakdown:

|--------|--------|
|-3~-----|-5~-----|
|-2~-----|-4~-----|
|-0~-----|-2~-----| repeat as needed
|-0~-----|-2~-----|
|-0~-----|-2~-----|


Break:
(This god...)

|---------------|--------------|-------------|
|---------------|--------------|-------------|
|-666666666666--|-11111111421--|-7777777777--|
|-777777777777--|-22222222222--|-0000000000--|
|-777777777777--|-22222222222--|-0000000000--|
|-777777777777--|-22222222222--|-0000000000--|

Part 3:
(To understand...)

|---------------|-------------|-------------|
|---------------|-------------|-------------|
|-777777777777--|-1111111111--|-2222222222--| x1
|-000000000000--|-2222222222--|-4444444444--|
|-000000000000--|-2222222222--|-4444444444--|
|-000000000000--|-2222222222--|-4444444444--|

|---------------|-------------|-------------|
|---------------|-------------|-------------|
|-666666666666--|-1111111111--|-2222222222--|
|-777777777777--|-2222222222--|-4444444444--| repeat as
|-777777777777--|-2222222222--|-4444444444--| needed
|-777777777777--|-2222222222--|-4444444444--|

Part 4:
(And I am the only...)

|----------------|----------------|
|-------10101010-|-------10101010-|
|--------9-9-9-9-|--------9-9-9-9-|
|-0000-----------|-0000-----------| repeat as
|-0000-----------|-0000-----------| needed
|-0000-----------|-0000-----------|

Part 5:
(I have cobwebs for maps)

This part is just an open D chord repeated ( I think)

|-----------------|
|-----------------|
|-----------------|
|-00000000000000--|
|-00000000000000--|
|-00000000000000--|

Part 6:
(This part is especially hard to tab, so I did my best)

|----------------|
|----------------|
|-----2---2---2--|
|---0---0--------|
|-0---------0----|
|----------------|

After that:

|------------------|
|-5s7-----3-3s5----|
|-----6-x-------2--|
|------------------|
|------------------|
|------------------|

This song was difficult to tab.  Again, note that this is how I play it, it is not by 
means the way Brian plays it.
            
Submit corrections



        Trippin' The Life Fantastic lessons Hard to play? Try these video lessons and learn fast Trippin' The Life Fantastic lessons
        
↑ Back to top | Tablatures and chords for acoustic guitar and electric guitar, ukulele, drums are parodies/interpretations of the original songs. You may use it for private study, scholarship, research or language learning purposes only