Home » W » We Are The Ocean »

We Are The Ocean - Ark Tabs

Artists:  A B C D E F G H I J K L M N O P Q R S T U V W X Y Z # 

Ark Tabs

(ver. 1) Click to play this song!
We Are The Ocean
[Intro]

e|-----------------------------|
B|--0---0--5--0--3-----3--2--3-|
G|----0-------------0----------|
D|-----------------------------| (x3)
A|-----------------------------|
E|--0-----(0)----0-------------|

e|---------------------------------------------------------------------------|
B|---------------------------------------------------------------------------|
G|---------------------------------------------------------------------------|
D|---------------------------------------------------------------------------|
A|-------------2---/4--4-----------------------------------------------------|
E|-3--0--2--3-----3/5-----5--3--2--------------------------------------------|


[Verse]

 | "Ark of roses...."
e|---------------------------------------------------------------------------|
B|--0---0--5--0--3-----3--2--3---0---0--5--0--3-----3--2--3------------------|
G|----0-------------0--------------0-------------0---------------------------|
D|---------------------------------------------------------------------------| 
A|---------------------------------------------------------------------------|
E|--0-----(0)----0---------------0-----(0)----0------------------------------|

 |                "...rain down red"                                         |
e|---------------------------------------------------------------------------|
B|--0---0--5--0--3-----3--2--3-----------------------------------------------|
G|----0-------------0--------------------------------------------------------|
D|---------------------------------------------------------------------------|
A|-------------------------------------------2---/4--4-----------------------|
E|--0-----(0)----0---------------3--0--2--3-----3/5-----5--3--2--------------|

 |  "Crown of silence..."
e|---------------------------------------------------------------------------|
B|--0---0--5--0--3-----3--2--3---0---0--5--0--3-----3--2--3------------------|
G|----0-------------0--------------0-------------0---------------------------|
D|---------------------------------------------------------------------------| 
A|---------------------------------------------------------------------------|
E|--0-----(0)----0---------------0-----(0)----0------------------------------|

                 "...keeps us still"
e|---------------------------------------------------------------------------|
B|--0---0--5--0--3-----3--2--3-----------------------------------------------|
G|----0-------------0--------------------------------------------------------|
D|---------------------------------------------------------------------------|
A|-------------------------------------------2---/4--4-----------------------|
E|--0-----(0)----0---------------3--0--2--3-----3/5-----5--3--2--------------|
            
Submit corrections

↑ Back to top | Tablatures and chords for acoustic guitar and electric guitar, ukulele, drums are parodies/interpretations of the original songs. You may use it for private study, scholarship, research or language learning purposes only