» » »

We Are Scientists - Lethal Enforcer Tabs

Artists:  A B C D E F G H I J K L M N O P Q R S T U V W X Y Z # 

Lethal Enforcer Tabs

(ver. 1) Click to play this song!
We Are Scientists
 Rating:
4/5 (4 votes)


 Lethal Enforcer lessons Tabs too difficult? Try these video lessons and learn fast
 
                

Tuning: Standard

Ok, heres goes my attempt...
This almost definitely isnt 100%, but it may be enough to work on!
Please leave corrections if you can think of them!
Theres a lot of effects on the guitar in parts, so much you can hardly
hear it...
Hopefully the song can be pieced together with what ive done.

Intro

e|--11-------------------------------------------------------------|
B|--12-------------------------------------------------------------|
G|--13-----Repeated------------------------------------------------|
D|--13-------------------------------------------------------------|
A|-----------------------------------------------------------------|
E|-----------------------------------------------------------------|

with:

e|-----------------------------------------------------------------|
B|-----------------------------------------------------------------|
G|--11(pm)-Repeated------------------------------------------------|
D|-----------------------------------------------------------------|
A|-----------------------------------------------------------------|
E|-----------------------------------------------------------------|

- - - - - - - - - - - - - - - - - - - - - - - - - - - - - - - - - - -

Verse X 2

e|--11-11----11-11----7-7----7-7-----------------------------------|
B|--12-12----12-12----7-7----7-7-----------------------------------|
G|--13-13----13-13----9-9----9-9----Repeated-----------------------|
D|--13-13----13-13----9-9----9-9-----------------------------------|
A|-----------------------------------------------------------------|
E|-----------------------------------------------------------------|


'You might think...'

e|----7-----7-------9-----7-----7----------------------------------|
B|------7-----7---7---7-----7--------------------------------------|
G|--------8-----8-------8-----8---8--------------------------------|
D|--9--------------------------------------------------------------|
A|-----------------------------------------------------------------|
E|-----------------------------------------------------------------|

e|--7--------------------------------------------------------------|
B|--7--------------------------------------------------------------|
G|--8--------------------------------------------------------------|
D|--9--------------------------------------------------------------|
A|--9--------------------------------------------------------------|
E|--7--------------------------------------------------------------|

'...Certain anymore...'

e|----5-----5-------5------5-----5---------------------------------|
B|------5-----5--------------5-----5-------------------------------|
G|--------6-----6--------------6-----6-----------------------------|
D|--7--------------------------------------------------------------|
A|-----------------------------------------------------------------|
E|-----------------------------------------------------------------|

e|--5--------------------------------------------------------------|
B|--5--------------------------------------------------------------|
G|--6--------------------------------------------------------------|
D|--7--------------------------------------------------------------|
A|--7--------------------------------------------------------------|
E|--5--------------------------------------------------------------|

- - - - - - - - - - - - - - - - - - - - - - - - - - - - - - - - - - -

Chorus    (sounds better if just the four higher strings are played)

e|--5----0----7----5-----------------------------------------------|
B|--5----0----7----5-----------------------------------------------|
G|--6----1----8----6-----------------------------------------------|
D|--7----2----9----7-----------------------------------------------|
A|--7----2----9----7-----------------------------------------------|
E|--5----0----7----5-----------------------------------------------|

with occasional: (All palm muted)

e|-----------------------------------------------------------------|
B|-----------------------------------------------------------------|
G|--11-11-11---11-11-11-11-11----13--------------------------------|
D|----------------------------------16-14-16-16-14-16-14-----------|
A|-----------------------------------------------------------------|
E|-----------------------------------------------------------------|

- - - - - - - - - - - - - - - - - - - - - - - - - - - - - - - - - - -

Then back to the intro, which also has:

e|-----------------------------------------------------------------|
B|-----------------------------------------------------------------|
G|--11-11-11---11-11-11-11-11----13--------------------------------|
D|----------------------------------16-14-16-16-14-16-14-----------|
A|-----------------------------------------------------------------|
E|-----------------------------------------------------------------|

- - - - - - - - - - - - - - - - - - - - - - - - - - - - - - - - - - -

Break

You can hardly hear any guitar in this, but i think the chords are:

'Well youve been...'       '...its gonna hurt...'
'Loves a classic...'       '...it always works...'

e|--5----------------------2---------------------------------------|
B|--5----------------------2---------------------------------------|
G|--6----------------------3---------------------------------------|
D|--7----------------------4---------------------------------------|
A|--7----------------------4---------------------------------------|
E|--5----------------------2---------------------------------------|

'This is a classic...'     '...cus it always works on you'


e|--5----------------------7---------------------------------------|
B|--5----------------------7---------------------------------------|
G|--6----------------------8---------------------------------------|
D|--7----------------------9---------------------------------------|
A|--7----------------------9---------------------------------------|
E|--5----------------------7---------------------------------------|


Again these may sound better if you only strum the high notes.

- - - - - - - - - - - - - - - - - - - - - - - - - - - - - - - - - - -


The rest is self explanatory i think.
Ive done my best, but im sure it can be made better.
Corrections are welcome!
            
Submit corrections



        Lethal Enforcer lessons Hard to play? Try these video lessons and learn fast Lethal Enforcer lessons
        
↑ Back to top | Tablatures and chords for acoustic guitar and electric guitar, ukulele, drums are parodies/interpretations of the original songs. You may use it for private study, scholarship, research or language learning purposes only