» » »

Weakened Friends - Waste Tabs

Artists:  A B C D E F G H I J K L M N O P Q R S T U V W X Y Z # 

Waste Tabs

(ver. 1) Click to play this song!
Weakened Friends
 Rating:
4.3/5 (29 votes)

 Waste lessons Tabs too difficult? Try these video lessons and learn fast
 
                Intro (0:00)
         A 
    d u   d u  u d u  d u  u d u  d u  u d u  d  d u d u d u 
e|--x-x-|-----------------------------------------x-x-x-x-x-x-------|
B|--x-x-|-----------------------------------------x-x-x-x-x-x-------|
G|--x-x-|--6-6--6-6-6--6-6--6-6-6--6-6--6-6-6--6--x-x-x-x-x-x-------|
D|--x-x-|--7-7--7-7-7--7-7--7-7-7--7-7--7-7-7--7--x-x-x-x-x-x-------|
A|--x-x-|--7-7--7-7-7--7-7--7-7-7--7-7--7-7-7--7--x-x-x-x-x-x-------|
E|--x-x-|--5-5--5-5-5--5-5--5-5-5--5-5--5-5-5--5--x-x-x-x-x-x-------|


Verse I (0:05)

    A                         D             C#
    d d  u u  d d  u u      d   d  u  u   d  d   u  u
e|--------------------------------------------------------|-|
B|--------------------------------------------------------|-|
G|-------6-6-------6-6-------------11-11---------10-10----|-|
D|--7-7--7-7--7-7--7-7------12-12--12-12--11-11--11-11----|-|
A|--7-7-------7-5-----------12-12---------11-11-----------|-|
E|--5-5-------5-5-----------10-10---------9--9------------|-|

A5                               D5
I grew up in a different kind of town than you
    C#          A5
But I can drive around so you
                     D5
Won't notice how I'm nervous
       C#                   A5
Or I'm anxious when you're around me
                          D5
Saying things like I look cute
         C#
Or other words you'll use
    A5                         D5
And I'm staring down at my own shoes
           C#
I'm trying not to puke because


Pre-Chorus (0:25)

    A5       G5       F#
e|---------------------------------------------------|
B|---------------------------------------------------|
G|------6b-------4b-------3-----3--------------------|
D|--7-7------5-5------4-4-4-4-4-4--------------------|
A|--7-7------5-5------4-4---4-4----------------------|
E|--5-5------3-3------2-2---2-2----------------------|
    PM       PM       PM    PM

A5          G5            F#
I am just a waste of your time
    A5          G5            F#
Oh, I am just a waste of your time
    A5          G5            F#
Oh, I am just a waste of your time
    A5          G5            F#
Oh, I am just a waste of your time
                  A5 (play intro rhythm)
For now you don't mind



Verse II (0:44)

Try playing something to this effect under the verse II chords
    A5          D5      C# 
e|-----------------------------------------------|
B|--10----------15------14-----------------------|
G|--12b---------17b-----16b----------------------|
D|-----------------------------------------------|
A|-----------------------------------------------|
E|-----------------------------------------------|

    A5                    
And we can walk around for hours
D5                 C#
Talking about when we were kids
    A5 
And all the things we got up to
    D5               C#
And all the things I wish we did
    A5
And I will never judge ya
         D5              C#
'Cause I knew you before all of these
    A5                           D5
Bad habits you're abusing and misusings
          C#
f**ked up everything


Pre-Chorus II (1:05)

    A5       G5       F#
e|---------------------------------------------------|
B|---------------------------------------------------|
G|------6b-------4b-------3-----3--------------------|
D|--7-7------5-5------4-4-4-4-4-4--------------------|
A|--7-7------5-5------4-4---4-4----------------------|
E|--5-5------3-3------2-2---2-2----------------------|
    PM       PM       PM    PM

A5          G5            F#
I am just a waste of your time
    A5          G5            F#
Oh, I am just a waste of your time
    A5          G5            F#
Oh, I am just a waste of your time
    A5          G5            F#
Oh, I am just a waste of your time
                  A5
For now you don't mind


    G5    F#
You don't mind
          A5
You don't mind
    G5    F#         
You don't mind
          A5  
You don't mind
    G5    F#
You don't mind
          A5
You don't mind
    G5         F#
You don't, you don't, you don't


Solo/Outro (1:38)
Played over A5 G5 F# outro chords

e|----------------------------------------------------------------------------------|-|
B|--12b-12b-12b-12b-12bbbbb---------------------------------------------------------|-|
G|---------------------------15-14--14/-13/-12/-11/-10/-----------------------------|-|
D|--12b-12b-12b-12b-12bbbbb--------------------------------9b-----------------------|-|
A|---------------------------------------------------------0------------------------|-|
E|----------------------------------------------------------------------------------|-|
                                     Tremolo picking       Let Ring

            
Submit corrections


        Waste lessons Hard to play? Try these video lessons and learn fast Waste lessons
        
↑ Back to top | Tablatures and chords for acoustic guitar and electric guitar, ukulele, drums are parodies/interpretations of the original songs. You may use it for private study, scholarship, research or language learning purposes only