» » »

Weakened Friends - Peel Tabs

Artists:  A B C D E F G H I J K L M N O P Q R S T U V W X Y Z # 

Peel Tabs

(ver. 1) Click to play this song!
Weakened Friends
 Rating:
4.3/5 (15 votes)

 Peel lessons Tabs too difficult? Try these video lessons and learn fast
 
                [Intro]

        G5       Em       B5      A5
     d d d d  d d d d  d d d d  d d d d
e|----------------------------------------|
B|----------------------------------------|
G|---------------------4-4-4-4------------|
D|---5-5-5-5--2-2-2-2--4-4-4-4--7-7-7-7---|
A|---5-5-5-5--2-2-2-2--2-2-2-2--7-7-7-7---|
E|---3-3-3-3--0-0-0-0--2-2-2-2--5-5-5-5---|

[Verse I] 
  G5         Em     B5   
       Tell me I'm awake

                A5                   
       Keep my eyes peeled and panned

  G5         Em
       I just can’t wait

  B5            A5
       To get back in my head


[Chorus Riff I (0:15)]
e|-----------------------------------------------|
B|------------8-7------8-7-----------------------|
G|-----------------------------------------------| X2
D|---5--7--9-------9--------9--------------------|
A|-----------------------------------------------|
E|-----------------------------------------------|

[Chorus Chords (0:15)]
       G5    Em    B5
e|---------------------------------------------------|
B|---------------------------------------------------|
G|-----------------4-4-X-X-4-4-X-X-4-4-X-X-4-4-X-X---| X2
D|---5-5-5--2-2-2--4-4-X-X-4-4-X-X-4-4-X-X-4-4-X-X---|
A|---5-5-5--2-2-2--2-2-X-X-2-2-X-X-2-2-X-X-2-2-X-X---| 
E|---3-3-3--0-0-0--2-2-X-X-2-2-X-X-2-2-X-X-2-2-X-X---|



[Verse II (0:30)]
  G5          Em           B5
       Tell me I should relate

                    A5
       But I don't, no I can't

  G5           Em           B5
       I’m stuck in my own escape

                     A5
       Bad structures and poor plans


[Chorus (0:45)]
Riff  II
e|-----------------------------------------------------|
B|-----------------------------------------------------|
G|-----------------------------------------------------|
D|------------5--4------5--4---------------------------|X2
A|-------------------2--------2------------------------|
E|---3--5--7-------------------------------------------|

G5          Em            B5
All I wanna do is be like them, but I can't

G5          Em              B5
All I wanna do is feel less bad, but I can't



[Verse III (1:00)]
This tasty synth part is played faintly under each couplet of Verse III,
which might sound nice with heavy reverb or trem picking

e|-----------------------------------------------|
B|--8------10------------------------------------|
G|-----------------11------12--------------------| X2
D|-----------------------------------------------|
A|-----------------------------------------------|
E|-----------------------------------------------|

PALM MUTE quarter note down strokes
   G5          Em          B5
       Load me up, fit the mold             

               A5 
       Size me up to unfold

   G5            Em              B5
       We don't break, we don't mend

                  A5
       We just sit and fake it



[Chorus II (1:14)]
 Riff III
e|----------------------------------------------------|-|
B|----------------------------------------------------|-|
G|------------------12----11---4----12----11----4-----|-|
D|---5----7----9--------------------------------4-----|-|
A|------------------10----9----2----10----9-----2-----|-|
E|---3----5----7--------------------------------2-----|-|

     G5          Em            B5
     All I wanna do is be like them, but I can't

     G5          Em              B5
     All I wanna do is feel less bad, but I can't



[Solo (1:29)]
e|--------------------------------------------------------------|-|
B|-0-----------------8-8-7-7-------8-8-7-7----------------------|-|
G|-0------------------------------------------------------------|-|
D|-0--5-5--7-7--9-9-----------9-9----------9-9-9-9-9-9-9-9-9b---|-|
A|-0------------------------------------------------------------|-|
E|--------------------------------------------------------------|-|

e|--------------------------------------------------------------|-|
B|-------------------8-8-7-7-------8-8-7-7-8-8-8-8-8-8-8-8-8b---|-|
G|--------------------------------------------------------------|-|
D|----5-5--7-7--9-9-----------9-9-------------------------------|-|
A|--------------------------------------------------------------|-|
E|--------------------------------------------------------------|-|


[Intro/Verse II w/ stacked overdrive (1:44)]
      
        G5          Em               B5               A5
     d d d d      d d d d      d d d d d d d d  d d d d d d d d
e|-------------------------------------------------------------|-|
B|-------------------------------------------------------------|-|
G|-----------------------------4-4-4-4-4-4-4-4-----------------|-|
D|---5-5-5-5------2-2-2-2------4-4-4-4-4-4-4-4--7-7-7-7-7-7-7-7|-|
A|---5-5-5-5------2-2-2-2------2-2-2-2-2-2-2-2--7-7-7-7-7-7-7-7|-|
E|---3-3-3-3------0-0-0-0------2-2-2-2-2-2-2-2--5-5-5-5-5-5-5-5|-|

e|------------7------------9-----------------------------------|-|
B|-----------10b----------12b----------------------------------|-|
G|-------------------------------------------------------------|-|
D|------------------------------------12-14-12h14-16b16b16b16b-|-|
A|-------------------------------------------------------------|-|
E|-------------------------------------------------------------|-|





     (N.C)       Em              B5
     All I wanna do is feel less bad, but I can't


     G5          Em            B5
     All I wanna do is be like them, but I can't
e|----------------------------------------------------------------------------------|-|
B|----------------------------------------------------------------------------------|-|
G|------------------12----11---4----12----11----4-4-X-X-4-4-X-X-4-4-X-X-4-4-X-X-----|-|
D|---5----7----9----X-----X----X----X-----X-----4-4-X-X-4-4-X-X-4-4-X-X-4-4-X-X-----|-|
A|---X----X----X----10----9----2----10----9-----2-2-X-X-2-2-X-X-2-2-X-X-2-2-X-X-----|-|
E|---3----5----7--------------------------------2-2-X-X-2-2-X-X-2-2-X-X-2-2-X-X-----|-|


         G5          E5            B5
     No, all I wanna do is be like that, but I can’t
e|-------------------------------------------------------------------------------------|
B|-------------------------------------------------------------------------------------|
G|-----------------------------------------------4-4-X-X-4-4-X-X-4-4-X-X-4-4-X-X-------|
D|---5/----7/----9/----------------------2-------4-4-X-X-4-4-X-X-4-4-X-X-4-4-X-X-------|
A|---X/----X/----X/----------------------2-------2-2-X-X-2-2-X-X-2-2-X-X-2-2-X-X-------|
E|---3/----5/----7////////////15(rit)----0-------2-2-X-X-2-2-X-X-2-2-X-X-2-2-X-X-------|
     (Tremolo pick)                      3X

 
     No, all I want, I want it so bad           
                                                  G5
e|----------------------------------------------------------|-|
B|-----------------------------------------------------------|
G|------------9----11----12----14----------------------------|
D|-------5----X----X-----X-----X---------------5-5-5-5-------|
A|-------X----7----9-----10----12--------------5-5-5-5-------|
E|-------3----0--------------------------------3-3-3-3-------|
         8X   8X   8X    4X    4X

            
Submit corrections


        Peel lessons Hard to play? Try these video lessons and learn fast Peel lessons
        
↑ Back to top | Tablatures and chords for acoustic guitar and electric guitar, ukulele, drums are parodies/interpretations of the original songs. You may use it for private study, scholarship, research or language learning purposes only