» » »

Weakened Friends - Early Tabs

Artists:  A B C D E F G H I J K L M N O P Q R S T U V W X Y Z # 

Early Tabs

(ver. 1) Click to play this song!
Weakened Friends
 Rating:
4.3/5 (24 votes)

 Early lessons Tabs too difficult? Try these video lessons and learn fast
 
                Tuning: E A D G B e

Chords used
    E    F#/E     A5     F#m
e|--0------0------5------2---------|
B|--0------0------5------2---------|
G|--1------1------6------2---------| 
D|--2------2------7------4---------|
A|--2------0------7------4---------|
E|--0------2------5------2---------|


Intro/Verse I&II (0:00)
    E            F#/E       A5
e|-----------------------------------------------|
B|-----------------------------------------------|
G|------1b-------------1-----------6-------------| 
D|----2----2--------2-----2-----------7----------|
A|------------0-----------------7----------------|
E|--0------------2-----------5-------------------|

   E              F#/E       A5
   I wanna get up early
   E                        F#/E        A5
   I'll find some things to do with the extra time
   E                     F#/E        A5
   I'll move to a bigger city
   E                 F#/E         A5
   I'll get a better job, buy you things you like


   Ooh oooooooh, Ooh ooooooooooh oohhhhhhoooooo

   E                     F#/E       A5
   I'll make my mom less worried
   E              F#/E      A5
   About what I'm not doing with my time
   E                F#/E      A5
   I'll be a better person
   E                    F#/E   A5       F#
   One that's worth you giving all your time


Pre-Chorus (0:53)
e|-------------------------------------|
B|-------------------------------------|
G|----------------6b-------------------| 
D|---4--------7-7----7-7---------------|
A|---4--------7-7----7-7---------------|
E|---2--------5-5----5-5---------------|
   PM 4X      PM

   F#                    A5
   But I'm caught in the middle
   F#                  A5
   Yeah, I'm somewhere stuck in-between


Verse Chords Strummed (1:02)
    E    F#/E     A5    
e|--0------0----------------------|
B|--0------0----------------------|
G|--1------1------6---------------| 2X
D|--2------2------7---------------|
A|--2------0------7---------------|
E|--0------2------5---------------|
    7x     3x     3x

Verse III (1:11)
   E               F#/E      A5
   I want myself a new head
   E                     F#/E        A5
   One that's not always twisted and falling off
   E                 F#/E     A5
   One that makes me happy
   E                  F#/E      A5     F#
   And one that I can fill with better thoughts


Pre-Chorus II (1:28)

   F#                    A5
   But I'm caught in the middle
   F#                  A5
   Yeah, I'm somewhere stuck in-between
   F#                      A5
   I'll lay awake 'til the morning
   F#                        A5
   And when you wake up, I'm falling back to sleep


Verse Chords Strummed (1:46)
    E    F#/E     A5    
e|--0------0----------------------|
B|--0------0----------------------|
G|--1------1------6---------------| 1X
D|--2------2------7---------------|
A|--2------0------7---------------|
E|--0------2------5---------------|
    7x     3x     3x


    E            F#/E       A5
e|-----------------------------------------------|
B|-----------------------------------------------|
G|------1b-------------1-----------6-------------| 
D|----2----2--------2-----2-----------7----------| 4X 
A|------------0-----------------7----------------|
E|--0------------2-----------5-------------------|


    Ooh oooooooh, Ooh ooooooooooh oohhhhhhooooo


            
Submit corrections


        Early lessons Hard to play? Try these video lessons and learn fast Early lessons
        
↑ Back to top | Tablatures and chords for acoustic guitar and electric guitar, ukulele, drums are parodies/interpretations of the original songs. You may use it for private study, scholarship, research or language learning purposes only