» » »

Weakened Friends - Blue Again Tabs

Artists:  A B C D E F G H I J K L M N O P Q R S T U V W X Y Z # 

Blue Again Tabs

(ver. 1) Click to play this song!
Weakened Friends
 Rating:
4.3/5 (25 votes)

 Blue Again lessons Tabs too difficult? Try these video lessons and learn fast
 
                Intro/Verse Riff (0:00)
e|---------------------------------------|
B|---------------------------------------|
G|----4---4------4--——--0-0--------------|
D|-5-5-5-5-0--2-2-0--2/4-4---------------|
A|---------------------------------------|
E|---------------------------------------|

Come in smooth talker
Yeah, you've got smooth words
Oh me, I'm a little bit awkward
The way I stumble and I slur

And I thought I'd be more
Something better, less than dirt
But I will never, I will never
I will never come first

Chorus (0:30)

   G5      B5      D5
e|-----------------------------------------------|
B|-----------------------------------------------|
G|----------4-------7----------------------------|
D|--5-------4-------7----------------------------|
A|--5-------2-------5----------------------------|
E|--3-------2-------5----------------------------|

  G5          B5            D5           G5
     Blue, oh,  it's just a feeling I get

     With you
        B5        D5         G5
     Oh,  I wanna go there again
              B5            D5           G5
     And blue,  it's just a feeling I get
                 B5
     Again, again
          D5
     Again, oh


Verse II (0:49)
e|---------------------------------------|
B|---------------------------------------|
G|-----4----4-----4--———-0-0-------------|
D|--5-5-5--5-0--22-0--2/4-4--------------|
A|---------------------------------------|
E|---------------------------------------|

And I tried to be clever
But I've closed all those doors
Anyway I liked me better
When I wasn't so insecure

And I'll wave my face
Like a flag in front of your's
It's so clear, It's so clear
It's so clear, It's so


Chorus II (1:10)

  G5          B5            D5           G5
     Blue, oh,  it's just a feeling I get

     With you
        B5        D5         G5
     Oh,  I wanna go there again
              B5            D5           G5
     And blue,  it's just a feeling I get
                 B5
     Again, again
          D5
     Again, oh



[Bridge]
e|--------------------------------------|
B|--0----0----0-------------------------|
G|--2----5----7-------------------------|
D|--2----5----7-------------------------|
A|--0----0----0-------------------------|
E|--------------------------------------|
    A5   C5   D5


  A5           C5                        A5
     I'll know more about you when it's over
               C5                        A5
     I'll know more about you over and over
               C5         D5
     I'll know more about you



Solo (1:50)
e|----------------------------------------------------------------------------|-|
B|----------------------------------------------------------------------------|-|
G|---4b-4b-b-b-4b-4b-4b-4b----4----4------------------------------------------|-|
D|-------------------------5-5-5--5-5-5-5-5-5-5-5-5//////4-4-4-4-4-4//////----|-|
A|----------------------------------------------------------------------------|-|
E|----------------------------------------------------------------------------|-|

e|----------------------------------------------------------------------------|-|
B|----------------------------------------------------------------------------|-|
G|---4b-4b-b-b-4b-4b-4b-4b--12-11-12-11-12-11-12-11-12-11-12-12b-12b-12b-12b--|-|
D|----------------------------------------------------------------------------|-|
A|----------------------------------------------------------------------------|-|
E|----------------------------------------------------------------------------|-|




Outro Chorus (2:09)
  
   G5      B5      D5
e|-----------------------------------------------|
B|-----------------------------------------------|
G|----------4-------7----------------------------|
D|--5-------4-------7----------------------------|
A|--5-------2-------5----------------------------|
E|--3-------2-------5----------------------------|

     Blue, oh, it's just a feeling I get with you

     Oh, I wanna go there again
 
     And blue, it's just a feeling I get

     Again, again

     Again, again

     Again, again

     Again, again

     Again, again

     Again, oh

            
Submit corrections


        Blue Again lessons Hard to play? Try these video lessons and learn fast Blue Again lessons
        
↑ Back to top | Tablatures and chords for acoustic guitar and electric guitar, ukulele, drums are parodies/interpretations of the original songs. You may use it for private study, scholarship, research or language learning purposes only