» » »

Wayward Daughter - Something New Tabs

Artists:  A B C D E F G H I J K L M N O P Q R S T U V W X Y Z # 

Something New Tabs

(ver. 1) Click to play this song!
Wayward Daughter
 Rating:
4/5 (4 votes)

 Something New  lessons Tabs too difficult? Try these video lessons and learn fast
 
                Standard - Capo 3

INTRO
e|---------------------------------------|    |--------------|
B|-------0-------0-------0-------0-------|    |-------0------|
G|-------0-------0-------0-------0-------|    |-------0------|
D|-----0---0---0---0---0---0---0---0-----|    |-----0---0----|
A|---------------------------------------|    |--------------| x4
E|---3-------3-------2-------2-----------|    |---0----------|


e|---------------------------------------|    |--------------|
B|-------0-------0-------0-------0-------|    |-------0------|
G|-------0-------0-------0-------0-------|    |-------0------|
D|-----0---0---0---0---0---0---0---0-----|    |-----0---0----|
A|---3-------3-------5-------5-----------|    |--------------| x4
E|---------------------------------------|    |---3----------|

VERSE
e|----------------------------------------------------------------------|
B|-------0-------0-------0-------0-------0-------0-------0-------0------|
G|-------0-------0-------0-------0-------0-------0-------0-------0------|
D|-----0---0---0---0---0---0---0---0---0---0---0---0---0---0---0---0----|
A|---------------------------------------------------3-------3----------| x4
E|---3-------3-------2-------2-------0-------0--------------------------|

CHORUS: PART A - PLAY THIS 3 TIMES
e|---------------------------------------|    |---------------|
B|-------0-------0-------3-------3-------|    |--------8------|
G|-------0-------0-------0-------0-------|    |--------0------|
D|-----0---0---0---0---4---4---4---4-----|    |------9---9----|
A|---2-------2-------5-------5-----------|    |---10----------| x4
E|---------------------------------------|    |---------------|

CHORUS: PART B
e|---------------------------------------|    |--------------|
B|-------0-------0-------1-------1-------|    |-------3------|
G|-------0-------0-------0-------0-------|    |-------0------|
D|-----0---0---0---0---2---2---2---2-----|    |-----0---0----|
A|---2-------2-------3-------3-----------|    |---2----------| x4
E|---------------------------------------|    |--------------|

CHORUS: PART C
e|---------------------------------------|
B|-------0-------0-------1-------1-------|
G|-------0-------0-------0-------0-------|
D|-----0---0---0---0---2---2---2---2-----|
A|---2-------2-------3-------3-----------|
E|---------------------------------------|

INTRO
e|---------------------------------------|    |--------------|
B|-------0-------0-------0-------0-------|    |-------0------|
G|-------0-------0-------0-------0-------|    |-------0------|
D|-----0---0---0---0---0---0---0---0-----|    |-----0---0----|
A|---------------------------------------|    |--------------| x4
E|---3-------3-------2-------2-----------|    |---0----------|

e|---------------------------------------|    |--------------|
B|-------0-------0-------0-------0-------|    |-------0------|
G|-------0-------0-------0-------0-------|    |-------0------|
D|-----0---0---0---0---0---0---0---0-----|    |-----0---0----|
A|---3-------3-------5-------5-----------|    |--------------| x4
E|---------------------------------------|    |---3----------|

VERSE
e|----------------------------------------------------------------------|
B|-------0-------0-------0-------0-------0-------0-------0-------0------|
G|-------0-------0-------0-------0-------0-------0-------0-------0------|
D|-----0---0---0---0---0---0---0---0---0---0---0---0---0---0---0---0----|
A|---------------------------------------------------3-------3----------| x4
E|---3-------3-------2-------2-------0-------0--------------------------|

CHORUS: PART A - PLAY THIS 3 TIMES
e|---------------------------------------|    |---------------|
B|-------0-------0-------3-------3-------|    |--------8------|
G|-------0-------0-------0-------0-------|    |--------0------|
D|-----0---0---0---0---4---4---4---4-----|    |------9---9----|
A|---2-------2-------5-------5-----------|    |---10----------| x4
E|---------------------------------------|    |---------------|

CHORUS: PART B
e|---------------------------------------|    |--------------|
B|-------0-------0-------1-------1-------|    |-------3------|
G|-------0-------0-------0-------0-------|    |-------0------|
D|-----0---0---0---0---2---2---2---2-----|    |-----0---0----|
A|---2-------2-------3-------3-----------|    |---2----------| x4
E|---------------------------------------|    |--------------|

CHORUS: PART C
e|---------------------------------------|
B|-------0-------0-------1-------1-------|
G|-------0-------0-------0-------0-------|
D|-----0---0---0---0---2---2---2---2-----|
A|---2-------2-------3-------3-----------|
E|---------------------------------------|

BRIDGE/INTERLUDE
e|---0----0----x----0---|       |---0----0----0----|       |---0----0----0---|
B|---0----3----0----8---|       |---3----3----8----|       |---3----1----3---|
G|---5----0----8----0---|       |---0----0----0----|       |---0----0----0---|
D|---5----2----10---9---|       |---2----4----9----|       |---2----2----0---|
A|---3----2----9----7---| x2    |---2----5----10---| x3    |---2----3----2---|
E|---0----0----0----0---|       |---0----0----0----|       |---0----0----3---|

LAST CHORUS
|---0----0----0----|       |---0----0----0---|    |---0----0----0----|
|---3----3----8----|       |---3----1----3---|    |---3----3----8----|
|---0----0----0----|       |---0----0----0---|    |---0----0----0----|
|---2----4----9----|       |---2----2----0---|    |---2----4----9----|
|---2----5----10---| x3    |---2----3----2---|    |---2----5----10---| x3
|---0----0----0----|       |---0----0----3---|    |---0----0----0----|


|---0----0----0---|
|---3----1----3---|
|---0----0----0---| SINGLE STRUMS ON EACH CHORD
|---2----2----0---|
|---2----3----2---| x2
|---0----0----3---|
            
Submit corrections


        Something New  lessons Hard to play? Try these video lessons and learn fast Something New  lessons
        
↑ Back to top | Tablatures and chords for acoustic guitar and electric guitar, ukulele, drums are parodies/interpretations of the original songs. You may use it for private study, scholarship, research or language learning purposes only