» » »

Wayne Shorter - Tabs

Artists:  A B C D E F G H I J K L M N O P Q R S T U V W X Y Z # 

Tabs

(ver. 1) Click to play this song!
Wayne Shorter
 Rating:
4.2/5 (30 votes)


  lessons Tabs too difficult? Try these video lessons and learn fast
 
                [Intro]
  Cm7/F                    Gbmaj7                   Ebm7                     Fm7         Bbmaj7
e|------------------------|------------------------|------------------------|------------------------|
B|---8--------------------|6-----------------------|------------------------|------------------------|
G|------------5-----------|------------------------|6-----6--5--6--8-----5--|------------------------|
D|------------------------|---------8--------------|------------------------|---8-----7--------------|
A|------------------------|------------------------|------------------------|---------------8--------|
E|------------------------|------------------------|------------------------|------------------------|
  1  +  2  +  3  +  4  +  |1  +  2  +  3  +  4  +  |1  +  2  +  3  +  4  +  |1  +  2  +  3  +  4  +  |

  Bb7                      Ebmaj7                   Em7(b5)                  A7(#5,#9)
e|------------------------|------------------------|------------------------|------------------------|
B|---8--------------------|6-----------------------|------------------------|------------------------|
G|------------5-----------|------------------------|3-----3--2--3--5--------|------------------------|
D|------------------------|---------8--------------|4-----4--3--4--3--------|------------------------|
A|------------------------|------------------------|------------------------|------------------------|
E|------------------------|------------------------|------------------------|------------------------|
  1  +  2  +  3  +  4  +  |1  +  2  +  3  +  4  +  |1  +  2  +  3  +  4  +  |1  +  2  +  3  +  4  +  |

[A]
  Dm7                      Eb7                      Dm7                      Cm7         F7(#5)
e|------------------------|------------------------|------------------------|------------------------|
B|------------------------|------------------------|------------------------|------------------------|
G|------------------------|---------------5--------|------------------------|---------------6--------|
D|7-----------------------|------8--7--8-----------|7-----------------------|------8--7--8-----------|
A|------------------------|------------------------|------------------------|------------------------|
E|------------------------|------------------------|------------------------|------------------------|
  1  +  2  +  3  +  4  +  |1  +  2  +  3  +  4  +  |1  +  2  +  3  +  4  +  |1  +  2  +  3  +  4  +  |

  Bbmaj7                   A7(#5)                   Dm7                      
e|------------------------|------------------------|------------------------|
B|------------------------|------------------------|------------------------|
G|------------------------|------------------------|------------------------|
D|7--------------------7-8|7-----5-----------------|------------------------|
A|---------5--------------|------------8-----5--8--|------------------------|
E|------------------------|------------------------|------------------------|
  1  +  2  +  3  +  4  +  |1  +  2  +  3  +  4  +  |1  +  2  +  3  +  4  +  |

 |-----1st Ending---------||-Ending before section B|
 |A7(#5)                  ||           D7(#5,#9)    |
e|------------------------||------------------------|
B|------------------------||------------------------|
G|------------------------||---------------7--------|
D|---------------5--------||---------------8--------|
A|------------------------||------------------------|
E|------------------------||------------------------|
  1  +  2  +  3  +  4  +  ||1  +  2  +  3  +  4  +  |

[B]
  Gm7                      C7                       Fm7         Bb7          Ebmaj7
e|------------------------|------------------------|------------------------|------------------------|
B|------------------------|------------------------|------------------------|------------------------|
G|5--------------7--------|5--------------7--------|5-----5--3--5--3--------|---------------7--------|
D|7--------------8--------|7--------------8--------|6-----6--5--6--5--------|5--------------8--------|
A|------------------------|------------------------|------------------------|5-----------------------|
E|------------------------|------------------------|------------------------|------------------------|
  1  +  2  +  3  +  4  +  |1  +  2  +  3  +  4  +  |1  +  2  +  3  +  4  +  |1  +  2  +  3  +  4  +  |

  Gm7                      C7                       Fm7         Bb7          Ebmaj7      A7(#5,#9)
e|------------------------|------------------------|------------------------|------------------------|
B|------------------------|------------------------|------------------------|------------------------|
G|5--------------7--------|5--------------7--------|5-----5--3--5--3--------|------------5-----------|
D|7--------------8--------|7--------------8--------|6-----6--5--6--5--------|5-----------------------|
A|------------------------|------------------------|------------------------|5-----------------------|
E|------------------------|------------------------|------------------------|------------------------|
  1  +  2  +  3  +  4  +  |1  +  2  +  3  +  4  +  |1  +  2  +  3  +  4  +  |1  +  2  +  3  +  4  +  |            
Submit corrections



         lessons Hard to play? Try these video lessons and learn fast  lessons
        
↑ Back to top | Tablatures and chords for acoustic guitar and electric guitar, ukulele, drums are parodies/interpretations of the original songs. You may use it for private study, scholarship, research or language learning purposes only