Home » W » Waylon Jennings »

Waylon Jennings - Honky Tonk Heroes Tabs

Artists:  A B C D E F G H I J K L M N O P Q R S T U V W X Y Z # 

Honky Tonk Heroes Tabs

(ver. 2) Click to play this song!
Waylon Jennings
(Correct)
Waylon Jennings 
Honky Tonk Heroes

this is my first tabbing and I've got it pretty 
darn close I think so let me know what you think...



Capo on 2nd fret




  C                       A7          
E----------------0-0-----0---------------0---0---------0---0
B----------------1-1-----1---------------2---2---------2---2
G----------------0-0-----0---------------0---0-----2---0---0
D-------------2--2-2-----2-----------2---2---2--0------2---2
A----0--2--3----------3-----2--1--0-------------------------
E--3--------------------------------------------------------


  D7           G7            C
E----------2-0------1---0-----------0---0-------------------
B----------1-1------0---0-----------1---1-------------------
G----2-----2-2------0---0-----------0---0-------------------
D-0--------------0-------------2----------------------0-1-2-
A----------------------------3------------------0-2-3-------
E--------------3-----------------------------3--------------
            
Submit corrections

↑ Back to top | Tablatures and chords for acoustic guitar and electric guitar, ukulele, drums are parodies/interpretations of the original songs. You may use it for private study, scholarship, research or language learning purposes only