Home » W » Watsky »

Watsky - Energy Tabs

Artists:  A B C D E F G H I J K L M N O P Q R S T U V W X Y Z # 

Energy Tabs

(ver. 2) Click to play this song!
Watsky
  Em             G                 Am                 C7/D      D#m~                
e|-------0----------------3---------------0-------------------------|
B|--------------------------------------2----------------3--------2-|
G|-----0-------------0----------------2------------------4--------3-|
D|---2-------------0---0------0-----0--------------------2--------1-|
A|--------------------------2---2------------0-1-2-3---3---3-2--2---|
E|-0-------0-1-2-3--------------------------------------------------|

after Chorus when the drums kick in:

   Em G  Am D D#m
e|-7--10-12-5-6---|
B|-8--10-13-5-7---|
G|-9--12-14-7-8---|
D|-9--12-14-7-8---|
A|-7--10-12-5-6---|
E|----------------| for the rest of the song 
(fast and hard (funky) during the verses and slow and ballady during the chorus)            
Submit corrections

↑ Back to top | Tablatures and chords for acoustic guitar and electric guitar, ukulele, drums are parodies/interpretations of the original songs. You may use it for private study, scholarship, research or language learning purposes only