Home » W » Waterparks »

Waterparks - Crave Bass

Artists:  A B C D E F G H I J K L M N O P Q R S T U V W X Y Z # 

Crave Bass

(ver. 1) Click to play this song!
Waterparks
 Rating:
4.3/5 (26 votes)
                [Intro]
*just guitar*

[Verse]
"I wish I could forget you but it's out of hand.."
G|---------------------------------------------------------------------------|
D|---------------------------------------------------------------------------|
A|0-0--0-0-2-2---------------------------------------------------------------|
E|-------------1-1--1-1-3-3--------------------------------------------------| x2

[Pre Chorus]

[Chorus]
"I'm craving, a getaway..."
G|---------------------------------------------------------------------------|
D|---------------------------------------------------------------------------|
A|-------------------------3-3-3-3-------------------------------------------|
E|-1-1-1-1-1-1-1-1-5-5-5-5---------------------------------------------------| x4

[Verse Two]
"For the past couple weeks I felt kind of great..."
G|---------------------------------------------------------------------------|
D|---------------------------------------------------------------------------|
A|-0~---5~---3~---0~---5~---3~-----------------------------------------------|
E|---------------------------------------------------------------------------| x2

"I wish I could forget you but it's out of hand.."
G|---------------------------------------------------------------------------|
D|---------------------------------------------------------------------------|
A|0-0--0-0-2-2---------------------------------------------------------------|
E|-------------1-1--1-1-3-3--------------------------------------------------| x2

[Chorus]
"I'm craving, a getaway from the..."
G|---------------------------------------------------------------------------|
D|---------------------------------------------------------------------------|
A|-------------------------3-3-3-3-------------------------------------------|
E|-1-1-1-1-1-1-1-1-5-5-5-5---------------------------------------------------| x4

[Bridge]
"I wish I could forget you.."

G|---------------------------------------------------------------------------|
D|---------------------------------------------------------------------------|
A|---------------------------------------------------------------------------|
E|-1-1-1-1-5-5-3-3-1-1-1-1-5-5-3-3-------------------------------------------| x2

[Chorus]
"I'm craving, a getaway from the..."
G|---------------------------------------------------------------------------|
D|---------------------------------------------------------------------------|
A|-------------------------3-3-3-3-------------------------------------------|
E|-1-1-1-1-1-1-1-1-5-5-5-5---------------------------------------------------| x4

            
Submit corrections

↑ Back to top | Tablatures and chords for acoustic guitar and electric guitar, ukulele, drums are parodies/interpretations of the original songs. You may use it for private study, scholarship, research or language learning purposes only