Home » W » Watain »

Watain - Night Vision Tabs

Artists:  A B C D E F G H I J K L M N O P Q R S T U V W X Y Z # 

Night Vision Tabs

(ver. 1) Click to play this song!
Watain
 Rating:
2.8/5 (28 votes)
                
e|------------7------------7h-8-p-7----------------6---------------------|
B|-------8--------------8-----------8-------8------7---------------------|INTRO-FIG.A
G|---9---------------9-----------------9-----------8---------------------|
D|-----------------------------------------------------------------------|
A|-----------------------------------------------------------------------|
E|-----------------------------------------------------------------------|


e|---------7-----------7------10-8-7------------7------10-8-7-----6----------------|
B|------8-----------8-----8----------8-------8-----8----------8---7----------------|
G|---9----------9-------------------------9-----------------------8----------------| INTRO FIG.B
D|---------------------------------------------------------------------------------|
A|---------------------------------------------------------------------------------|
E|---------------------------------------------------------------------------------|


e|--------------------0------------------------0-------------------7------------------7--------|
B|-----------------4-----4------------------7-----7-------------8-----8------------8----8------| 
G|--9-----5-----5-----------5------------8-------------------9-------------------9-------------|BRIDGE 1.
D|--9-----5--5------------------------8-------------------9--------------------9---------------|
A|--7--/--3------------------------6-------------------7--------------------7------------------|
E|---------------------------------------------------------------------------------------------|

      PLAY INTRO FIGURE A+B


e|---------------------------------------------------------------------------|
B|---------------------------------------------------------------------------| INTERLUDE
G|-------------------------------------------------9--8vv--------------------|
D|----------6---8-9-----------6---8-9-8--6-8--5vv----------------------------|
A|-------6-----------------6-------------------------------------------------|
E|---4-----------------4-----------------------------------------------------|


e|--------1----------------------3-------------3---5----5--------------------|
B|------------3----------------------5---------5---6----6--------------------|
G|----------------3----------------------5--------------7--------------------| BRIDGE 2.
D|---0-------------------1sl-3-----------------------------------------------|
A|---------------------------------------------------------------------------|
E|---------------------------------------------------------------------------|            
Submit corrections

↑ Back to top | Tablatures and chords for acoustic guitar and electric guitar, ukulele, drums are parodies/interpretations of the original songs. You may use it for private study, scholarship, research or language learning purposes only