Home » W » Watain »

Watain - Lawless Darkness Tabs

Artists:  A B C D E F G H I J K L M N O P Q R S T U V W X Y Z # 

Lawless Darkness Tabs

(ver. 1) Click to play this song!
Watain
 Rating:
3.2/5 (22 votes)
                Tuning:E standard-ebgdae

e|--------------------0-------------------------------------------------------|
B|---------------9---------9--------------------------------------------------| let ring
G|-----------8----------------8-----------------------------------------------| 4x          Guit1.
D|------6---------------------------------------------------------------------|
A|----------------------------------------------------------------------------|
E|----------------------------------------------------------------------------|


e|-----------------------3----------------4--------------3--------------------|
B|-----------------6----------6---------------6----------------6--------------|2x
G|----------5-----------------------5--------------5------------------5-------|
D|----3-----------------------------------------------------------------------|
A|----------------------------------------------------------------------------|
E|----------------------------------------------------------------------------|


e|----------------------------------------------------------------------------|
B|----------------------------------------------------------------------------| Guit2.
G|----------------------------------------------------------------------------|
D|-6--6---------------3-3-----------------------------------------------------|
A|-6--6---repeat------3-3---repeat---------------------------------------------
E|-4--4---------------1-1-----------------------------------------------------|


e|---------------h------------------------------------------------------------|
B|---sl 12 11 11--12----------9-----------------------------------------------
G|----------------------8-------9 8h9p8--10 121312-10 12-----10-- ------------- Guit 3.
D|--------------------------------------------------------11-----1110----------|
A|-----------------------------------------------------------------------------|
E|-----------------------------------------------------------------------------|


e|---------------------------------------------------------------------------| BRIDGE 1a
B|---------------------------------------------------------------------------|
G|----------------------------------------------------------------2----------|
D|--2---------3----------------------------- 5------------4-------------------
A|--2---------3---repeat few time-------7--------7-----5----5-----------------
E|-----0000-------------------------------------------------------------------


e|---------------------------------------------------------------------------|  BRIDGE 1b
B|---------------------------------------------------------------------------|
G|---------------------------------------------------------4-----------------|
D|--2----------3------------------------5------------5---------5--4h5---------
A|--2----------3-------------------------------7-----------------------------|
E|-----0000------------------------------------------------------------------|


e|---------------------------------------------2----------3----------2-----------|
B|------------------------------------------5------5-----------5--------5--------|
G|--------------------------------------4--------------4----------4----------4---|
D|-3--------------------------------2--------------------------------------------|
A|-3-------------clean let ring---------------------------------------------------
E|-1------------------------------------------------------------------------------


e|---------------------------------------------------------------------------|
B|---------------------------------------------------------------------------|
G|---------------------------------------------------------------------------|
D|-222 444 555 44 22------- 2 2---9--7--5--4--2--2--2---5--5--5----8--8--8----
A|--------------------------2-2---7--5--3--2--2--2--2---3--3--3----6--6--6----
E|--------------------------0-0---------------0--0--0---3--3--3----6--6--6----
            
Submit corrections

↑ Back to top | Tablatures and chords for acoustic guitar and electric guitar, ukulele, drums are parodies/interpretations of the original songs. You may use it for private study, scholarship, research or language learning purposes only