Home » W » Warrant »

Warrant - Cherry Pie Bass

Artists:  A B C D E F G H I J K L M N O P Q R S T U V W X Y Z # 

Cherry Pie Bass

(ver. 2) Click to play this song!
Warrant
hey, this is my first tab for this site tell me how ya like it other than that enjoy

 TUNING: DADG


INTRO
G--------------------------------------------|
D------------------------------------3-------|
A-11/--0~--3~--5~-5~---------------0---5-3---|
D-----------------------3333-5555------------|


FIRST CHORUS
G--------------------------------------------|
D--------------------------------------------|
A---------0-0--3~-5~-----------3---5~--------|
D-2-2--5-5-------------2-2-5-5----5-------0--|


1ST VERSE
(guitar starts for about 3 seconds)
G-----------------------------------------------------------------|
D-----------------------------------------------------------------|
A-----------3~------------------5~--------------------------------|
D-2--22--2-----5~--2------22--------7~----2-2-2-2-2-2-2-2-2-2-2-2-|

G-------------------------------------------------------------------------|
D-------------------------------------------------------------------------|
A-5~---------------------5~----------------5~-----------------------------|
D----7~---2---22---2---------7~---2---22-------7~-2-2-2-2-2-2-2-2-2-2-2-2-|

G--------|
D--------|
A-5~-----|
D-----7~-|

PRE-CHORUS
G----------------------------------|
D----------------------------------|
A---------5~--5~-------------------|
D7~--10~-----------3-3-3-3-555-5-5-|

CHORUS
G-------------------------------------------------|
D-------------------------------------------------|
A-----------0-0--3~-5~--------------3----5~-------|
D-2-2--5-5--------------2-2----5-5----5-----------|X2


2ND VERSE
drums enter
G----------------------------------------|
D----------------------------------------|
A-5~------------------------------5~-----|
D-----7~--2-2-2-2-2-2-2-2-2-2-2-2-----7~-|


PRE-CHORUS
G----------------------------------|
D----------------------------------|
A---------5~--5~-------------------|
D7~--10~-----------3-3-3-3-555-5-5-|

CHORUS
G-------------------------------------------------|
D-------------------------------------------------|
A-----------0-0--3~-5~--------------3----5~-------|
D-2-2--5-5--------------2-2----5-5----5-----------|X2

BREAK
G----I---------------------------------------|
D----I---------------------------------------|
A-14/I-0H2-0H2-0H2-0H2-0~-0H2-0H2-0H2-0H2-0~-|
D----I---------------------------------------|X2


VERSE
G-------------------------------------------|
D-------------------------------------------|
A-------------5~----------------------------|
D-2----22--2-----7~-2-2-2-2-2-2-2-2-2-2-2-2-|


LAST CHORUS
up and octive
G--------------------------------------|
D-----------0-0--3~-5~-----------3---5-|
A-0-0--3-3-------------0-0--3-3----5---|
D--------------------------------------|X2

G-----------------------------|
D-----------------------------|
A-3--5~-----------------------|
D---5-----3333-5555-3333-5555-|

WELL THERE YA HAVE IT HOPE YOU LIKED IT AND I HOPE IT HELPED
            
Submit corrections

↑ Back to top | Tablatures and chords for acoustic guitar and electric guitar, ukulele, drums are parodies/interpretations of the original songs. You may use it for private study, scholarship, research or language learning purposes only