» » »

Warning - Ugh Live Tabs

Artists:  A B C D E F G H I J K L M N O P Q R S T U V W X Y Z # 

Ugh Live Tabs

(ver. 1) Click to play this song!
Warning
 Rating:
4.3/5 (23 votes)

 Ugh Live lessons Tabs too difficult? Try these video lessons and learn fast
 
                [Verse 1]

     PM                                           PM off
e|---------------------------------------------------------------|
B|---------------------------------------------------------------|
G|---------------------------------------------------------------|
D|-7-7-7-7-7-7-7-7-7-7-7-7-7-7-7-7-7-7-7-7-7-7-7-7-9----10-10----|
A|-7-7-7-7-7-7-7-7-7-7-7-7-7-7-7-7-7-7-7-7-7-7-7-7-9----10-10----|
E|-5-5-5-5-5-5-5-5-5-5-5-5-5-5-5-5-5-5-5-5-5-5-5-5-7----8--8-----|

   There's so much more to this than that...

     PM                                           PM off
e|---------------------------------------------------------------|
B|---------------------------------------------------------------|
G|---------------------------------------------------------------|
D|-7-7-7-7-7-7-7-7-7-7-7-7-7-7-7-7-7-7-7-7-7-7-7-7-5-----5-------|
A|-7-7-7-7-7-7-7-7-7-7-7-7-7-7-7-7-7-7-7-7-7-7-7-7-5-----5-------|
E|-5-5-5-5-5-5-5-5-5-5-5-5-5-5-5-5-5-5-5-5-5-5-5-5-3-----3-------|

   Suppress the feelings bite them back...

e|---------------------------------------------------------------|
B|---------------------------------------------------------------|
G|---------------------------------------------------------------| repeat last 3 lines x2
D|-------------------------------------5-5-7-7-------------------|
A|-5-5-5---3--5-5--5-5-5-3--5-5----------------8-8-7-7-7-7-7-7-7-|
E|-------------------------------5-5-5---------------------------|

e|-------------------------------------------------------------|
B|-------------------------------------------------------------|
G|-------------------------------------------------------------| x2
D|-----5--7-5-------5--7-5-------5--7-5-7-8-8-8-7---10-8--8-7--|
A|------------8------------8-----------------------------------|
E|-5------------5------------5---------------------------------|

   Now I am trapped within...

e|---------------------------------------------|
B|---------------------------------------------|
G|---------------------------------------------|
D|-5-3--3--1--------5-5-7-7--------------------|
A|--------------------------8-8-7-7-7-7-7-7-7--|
E|------------5-5-5----------------------------|

[Chorus]

e|----------------------------------------------------------------------------|
B|----------------------------------------------------------------------------|
G|----------------------------------------------------------------------------| x2
D|-7-7-7-7--7-7-7-5-5-7-7-7-7-7-7-10-10-10-10--10-10-10-9--9--9--9---9--9--9--|
A|-7-7-7-7--7-7-7-5-5-7-7-7-7-7-7-10-10-10-10--10-10-10-10-10-10-10--10-10-10-|
E|-5-5-5-5--5-5-5-3-3-5-5-5-5-5-5-8--8--8--8---8--8--8--7--7--7--7---7--8--7--|

   Oh save me 'cuz I'm falling down...

e|---------------------------------------------------------------------------------|
B|---------------------------------------------------------------------------------|
G|---------------------------------------------------------------------------------| x2
D|-3-3-3-3-3-3-3-3-3-3-3-3-3-3-3-3-10-10-10-10-10-10-10-10-9--9--9--9--9--9--9--9--|
A|-3-3-3-3-3-3-3-3-3-3-3-3-3-3-3-3-10-10-10-10-10-10-10-10-10-10-10-10-10-10-10-10-|
E|-1-1-1-1-1-1-1-1-1-1-1-1-1-1-1-1-8--8--8--8--8--8--8--8--7--7--7--7--8--7--7--7--|

   Oh we are so far from the ground...

           PM PM off
e|---------------------------------------------------------------------------------------------|
B|---------------------------------------------------------------------------------------------|
G|---------------------------------------------------------------------------------------------|
D|-3-3-3-5--5-5-5-5-7---------------5-5-7-7-------------------------5-5-7-7--------------------|
A|-3-3-3-5--5-5-5-5-7-----------------------8-8-7-7-7-7-7-7-7---------------8-8-7-7-7-7-7-7-7--|
E|-1-1-1-3--3-3-3-3-5---------5-5-5---------------------------5-5-5----------------------------|


[Verse 2]

     PM                                           PM off
e|---------------------------------------------------------------|
B|---------------------------------------------------------------|
G|---------------------------------------------------------------|
D|-7-7-7-7-7-7-7-7-7-7-7-7-7-7-7-7-7-7-7-7-7-7-7-7-9----10-10----|
A|-7-7-7-7-7-7-7-7-7-7-7-7-7-7-7-7-7-7-7-7-7-7-7-7-9----10-10----|
E|-5-5-5-5-5-5-5-5-5-5-5-5-5-5-5-5-5-5-5-5-5-5-5-5-7----8--8-----|

   The sadness tastes like yester day...

     PM                                           PM off
e|---------------------------------------------------------------|
B|---------------------------------------------------------------|
G|---------------------------------------------------------------|
D|-7-7-7-7-7-7-7-7-7-7-7-7-7-7-7-7-7-7-7-7-7-7-7-7-5-----5-------|
A|-7-7-7-7-7-7-7-7-7-7-7-7-7-7-7-7-7-7-7-7-7-7-7-7-5-----5-------|
E|-5-5-5-5-5-5-5-5-5-5-5-5-5-5-5-5-5-5-5-5-5-5-5-5-3-----3-------|

   And time won't take this pain away...

e|---------------------------------------------------------------|
B|---------------------------------------------------------------|
G|---------------------------------------------------------------| repeat last 3 lines x2
D|-------------------------------------5-5-7-7-------------------|
A|-5-5-5---3--5-5--5-5-5-3--5-5----------------8-8-7-7-7-7-7-7-7-|
E|-------------------------------5-5-5---------------------------|

e|-------------------------------------------------------------|
B|-------------------------------------------------------------|
G|-------------------------------------------------------------| x2
D|-----5--7-5-------5--7-5-------5--7-5-7-8-8-8-7---10-8--8-7--|
A|------------8------------8-----------------------------------|
E|-5------------5------------5---------------------------------|

   Now I'm trapped within...

e|---------------------------------------------|
B|---------------------------------------------|
G|---------------------------------------------|
D|-5-3--3--1--------5-5-7-7--------------------|
A|--------------------------8-8-7-7-7-7-7-7-7--|
E|------------5-5-5----------------------------|

[Chorus]

e|----------------------------------------------------------------------------|
B|----------------------------------------------------------------------------|
G|----------------------------------------------------------------------------| x2
D|-7-7-7-7--7-7-7-5-5-7-7-7-7-7-7-10-10-10-10--10-10-10-9--9--9--9---9--9--9--|
A|-7-7-7-7--7-7-7-5-5-7-7-7-7-7-7-10-10-10-10--10-10-10-10-10-10-10--10-10-10-|
E|-5-5-5-5--5-5-5-3-3-5-5-5-5-5-5-8--8--8--8---8--8--8--7--7--7--7---7--8--7--|

   Oh save me 'cuz I'm falling down...

e|---------------------------------------------------------------------------------|
B|---------------------------------------------------------------------------------|
G|---------------------------------------------------------------------------------| x2
D|-3-3-3-3-3-3-3-3-3-3-3-3-3-3-3-3-10-10-10-10-10-10-10-10-9--9--9--9--9--9--9--9--|
A|-3-3-3-3-3-3-3-3-3-3-3-3-3-3-3-3-10-10-10-10-10-10-10-10-10-10-10-10-10-10-10-10-|
E|-1-1-1-1-1-1-1-1-1-1-1-1-1-1-1-1-8--8--8--8--8--8--8--8--7--7--7--7--8--7--7--7--|

   Oh we are so far from the ground...

           PM PM off
e|-----------------------|
B|-----------------------|
G|-----------------------|
D|-3-3-3-5--5-5-5-5-7----|
A|-3-3-3-5--5-5-5-5-7----|
E|-1-1-1-3--3-3-3-3-5----|


[Bridge]

   PM
e|-------------------------------------------------------------------------------------------------|
B|-------------------------------------------------------------------------------------------------|
G|-------------------------------------------------------------------------------------------------|
D|-10-10-10-10-10-10-10-10-12-12-12-12-12-12-12-12-14-14-14-14-14-14-14-14-9--9--9--9--9--9--9--9--|
A|-10-10-10-10-10-10-10-10-12-12-12-12-12-12-12-12-14-14-14-14-14-14-14-14-10-10-10-10-10-10-10-10-|
E|-8--8--8--8--8--8--8--8--10-10-10-10-10-10-10-10-12-12-12-12-12-12-12-12-7--7--7--8--8--8--7--7--|

   This is not real...

e|-------------------------------------------------------------------------------------------------|
B|-------------------------------------------------------------------------------------------------|
G|-------------------------------------------------------------------------------------------------|
D|-10-10-10-10-10-10-10-10-12-12-12-12-12-12-12-12-14-14-14-14-14-14-14-14-9--9--9--9--9--9--9--9--|
A|-10-10-10-10-10-10-10-10-12-12-12-12-12-12-12-12-14-14-14-14-14-14-14-14-10-10-10-10-10-10-10-10-|
E|-8--8--8--8--8--8--8--8--10-10-10-10-10-10-10-10-12-12-12-12-12-12-12-12-7--7--7--8--8--8--7--7--|

   What it will take to make me break once and for all

[Outro]

e|------------------------------------------------------------------|
B|------------------------------------------------------------------|
G|------------------------------------------------------------------| x4
D|-------5-5-7-7-------------------------5-5-7-7--------------------|
A|---------------8-8-7-7-7-7-7-7-7---------------8-8-7-7-7-7-7-7-7--|
E|-5-5-5---------------------------5-5-5----------------------------|

e|--------------------------------------------------------|
B|--------------------------------------------------------|
G|-------------------------------------9----7-------------| x4
D|-7------9--10--9------10--12--7--------------10----9----|
A|--------------------------------------------------------|
E|--------------------------------------------------------|

e|------|
B|------|
G|------|
D|-7----|
A|------|
E|------|
            
Submit corrections


        Ugh Live lessons Hard to play? Try these video lessons and learn fast Ugh Live lessons
        
↑ Back to top | Tablatures and chords for acoustic guitar and electric guitar, ukulele, drums are parodies/interpretations of the original songs. You may use it for private study, scholarship, research or language learning purposes only