Home » W » Warning »

Warning - The Strength To Dream Tabs

Artists:  A B C D E F G H I J K L M N O P Q R S T U V W X Y Z # 

The Strength To Dream Tabs

(ver. 1) Click to play this song!
Warning
RIFF 1
b |---------------|---------------|
F#|---------------|---------------|
D |---------------|---------------|
A |-2--4--7--7--4-|-2--4--7--6--5-|
E |-2--2--5--7--4-|-2--2--5--4--5-|
B |-0--------5--2-|-0-----------3-| x5

b |---------------|-------------------|
F#|---------------|-------------------|
D |---------------|-------------------|
A |-2--4--7--7--4-|--2--4--7--6--5--7-|
E |-2--2--5--7--4-|--2--2--5--4--5--7-|
B |-0--------5--2-|--0-----------3--5-|



RIFF 2
b |-------------------------|----------------------------|
F#|-------------------------|----------------------------|
D |-------------------------|----------------------------|
A |-------------------------|--------------------8--3--2-|
E |-2------2-----2-----3--0-|-2-----2-----2------8--3--2-|
B |---3-2----3-2---3-2------|---3-2---3-2---3-2--6--1--0-| x2

Solo
b |---------------------------------|-------------------------|
F#|---------------------------------|-------------------------|
D |---------------------------------|-------------------------|
A |-5--5-4-5--7--7-9-7--4-4-4h5p4-2-|-5--5-4-5--7--7-9-7-4--8-|
E |---------------------------------|--------------------4----|
B |---------------------------------|--------------------2--6-| x2



RIFF 3
b |--------------------------|------------------------|
F#|--------------------------|------------------------|
D |--------------------------|------------------------|
A |-9-9--7-9-7--5-5----------|-9-9--7-9-7--5----------|
E |-9-9--7-9-7--5-5--------4-|-9-9--7-9-7--5----------|
B |-7-7--5-7-5--3-3--0-2-3---|-7-7--5-7-5--3--0-3-2-3-| x5

RIFF 4
b |-------------------------|----------------------------|
F#|-------------------------|----------------------------|
D |-------------------------|----------------------------|
A |-2---2-4-5-4---5---5-4---|-2----2-4-5-4---5-5-5-5-5-4-|
E |-2-2---------5-5-------5-|-2--2---------5-5-5-5-5-5-4-|
B |-0-------------3---------|-0--------------3-3-3-3-3-2-| x2

RIFF 3
b |--------------------------|------------------------|
F#|--------------------------|------------------------|
D |--------------------------|------------------------|
A |-9-9--7-9-7--5-5----------|-9-9--7-9-7--5----------|
E |-9-9--7-9-7--5-5--------4-|-9-9--7-9-7--5----------|
B |-7-7--5-7-5--3-3--0-2-3---|-7-7--5-7-5--3--0-3-2-3-| x4



RIFF 5
b |-----------|-------------------|-----------|-----------------|
F#|-----------|-------------------|-----------|-----------------|
D |-----------|-------------------|-----------|-----------------|
A |-----4-----|---------------5-4-|-----4-----|-----5-5-5-5-5-4-|
E |---3---5-2-|---3--5--2-3-2-----|---3---5-2-|---3-5-5-5-5-5-4-|
B |-0---------|-0-----------------|-0---------|-0---3-3-3-3-3-2-| x2

b |-----------|-------------------|-----------|---------|
F#|-----------|-------------------|-----------|---------|
D |-----------|-------------------|-----------|---------|
A |-----4-----|---------------5-4-|-----4-----|-----5-4-|
E |---3---5-2-|---3--5--2-3-2-----|---3---5-2-|---3-5-4-|
B |-0---------|-0-----------------|-0---------|-0---3-2-|

b |-----------|-------------------|-----------|---------|
F#|-----------|-------------------|-----------|---------|
D |-----------|-------------------|-----------|---------|
A |-----4-----|---------------5-4-|-----4-----|-----5-7-|
E |---3---5-2-|---3--5--2-3-2-----|---3---5-2-|---3-5-7-|
B |-0---------|-0-----------------|-0---------|-0---3-5-|



Clean
b |------------------|------------------|------------------|-------------------------|
F#|-------0------0---|-------0------0---|-------0------0---|-------0-----------------|
D |-----6----------6-|-----6----------6-|-----6----------6-|--------------6--------8-|
A |---6--------6-----|---6--------6-----|---6--------6-----|-----6------7---7----7---|
E |-4--------0-------|-4--------0-------|-4--------0-------|---6---------------9-----|
B |------------------|------------------|------------------|-4--------5--------------|

b |------------------|------------------|------------------|-------------------------|
F#|-------0------0---|-------0------0---|-------0------0---|-------0-----------------|
D |-----6----------6-|-----6----------6-|-----6----------6-|--------------6--------8-|
A |---6--------6-----|---6--------6-----|---6--------6-----|-----6------7---7----7---|
E |-4--------0-------|-4--------0-------|-4--------0-------|---6---------------9-----|
B |------------------|------------------|------------------|-4--------5--------------|


Clean solo
b |--------------------------------------------------9-----------|
F#|-9-10-9--9-10-12-10--9-10-9-------9-10-9--9-10-12---12-10-9-5-|
D |----------------------------9-6-------------------------------|
A |--------------------------------------------------------------|
E |--------------------------------------------------------------|
B |--------------------------------------------------------------|

b |----------------------------------------------------------4-5-7-|
F#|-9-10-9--9-10-12-10--9-10-9-------4-5-4-----4-5-4---4-5-7-------|
D |----------------------------9-6---------4-1-------6-------------|
A |----------------------------------------------------------------|
E |----------------------------------------------------------------|
B |----------------------------------------------------------------|


b |-------------------------------------------|
F#|-------0------0----------0-----------------|
D |-----6----------6---------------6--------8-|
A |---6--------6----------6------7---7----7---|
E |-4--------0----------6---------------9-----|
B |-------------------4--------5--------------|

b |------------------|
F#|-------0--------0-|
D |-----6--------6---|
A |---6--------6-----|
E |-4--------4-------|
B |------------------|

b |-------------------------------------------|
F#|-------0------0----------0-----------------|
D |-----6----------6---------------6--------8-|
A |---6--------6----------6------7---7----7---|
E |-4--------0----------6---------------9-----|
B |-------------------4--------5--------------|

b |------------------|
F#|-------0--------0-|
D |-----6--------6---|
A |---6--------6-----|
E |-4--------4-------|
B |------------------|

Clean Outro                   *distortion*
b |--------------------------|--------------|
F#|-------0-------0----------|--------------|
D |-----4------------------2-|------------0-|
A |---4---------5--------4---|----------2---|
E |-2---------5--------4-----|---2-5--3-----|
B |---------3--------2-------|-3------------|



RIFF 3
b |--------------------------|------------------------|
F#|--------------------------|------------------------|
D |--------------------------|------------------------|
A |-9-9--7-9-7--5-5----------|-9-9--7-9-7--5----------|
E |-9-9--7-9-7--5-5--------4-|-9-9--7-9-7--5----------|
B |-7-7--5-7-5--3-3--0-2-3---|-7-7--5-7-5--3--0-3-2-3-| x6

RIFF 4
b |-------------------------|----------------------------|
F#|-------------------------|----------------------------|
D |-------------------------|----------------------------|
A |-2---2--4-5-4---5--5-4---|-2----2-4-5-4---5-5-5-5-5-4-|
E |-2-2----------5-5------5-|-2--2---------5-5-5-5-5-5-4-|
B |-0--------------3--------|-0--------------3-3-3-3-3-2-| x2



RIFF 1
b |---------------|----------------|
F#|---------------|----------------|
D |---------------|----------------|
A |-2--4--7--7--4-|--2--4--7--6--5-|
E |-2--2--5--7--4-|--2--2--5--4--5-|
B |-0--------5--2-|--0-----------3-| x3

b |---------------|----------------|------------|
F#|---------------|----------------|------------|
D |---------------|----------------|------------|
A |-2--4--7--7--4-|--2--4--7--6--5-|-7----2-----|
E |-2--2--5--7--4-|--2--2--5--4--5-|-7----2-----|
B |-0--------5--2-|--0-----------3-|-5----0-----|

            
Submit corrections

↑ Back to top | Tablatures and chords for acoustic guitar and electric guitar, ukulele, drums are parodies/interpretations of the original songs. You may use it for private study, scholarship, research or language learning purposes only