» » »

Warning - The One Tabs

Artists:  A B C D E F G H I J K L M N O P Q R S T U V W X Y Z # 

The One Tabs

(ver. 1) Click to play this song!
Warning
 Rating:
4.3/5 (21 vote)

 The One lessons Tabs too difficult? Try these video lessons and learn fast
 
                [Verse 1]

e|----------------------------------------------------------------------|
B|-----------11------------------11-------------11------------------11--|
G|-----12--------12--------12-------------12--------12--------12--------|
D|--10----10---------10-10----10-------10----10---------10-10----10-----|
A|----------------------------------------------------------------------|
E|----------------------------------------------------------------------|

   I'll do anything to make it happen...

e|----------------------------------------------------------------------|
B|----------------------------------------------------------------------|
G|-----------12------------------12-------------12------------------12--| x4 (repeat two bars)
D|-----13--------13--------13-------------13--------13--------13--------|
A|--11----11---------11-11----11-------11----11---------11-11----11-----|
E|----------------------------------------------------------------------|

   Remember be as I was before

                               PM (gradually lift)
e|--------------------------------------------------------------|
B|--------------------------------------------------------------|
G|--------------------------------------------------------------|
D|--8--------6--------8--------6-6-6-6-6-6-6-6-5-5-5-5-5-5-5-5--|
A|--8--------6--------8--------6-6-6-6-6-6-6-6-5-5-5-5-5-5-5-5--|
E|--6--------4--------6--------4-4-4-4-4-4-4-4-3-3-3-3-3-3-3-3--|

   Always staring from afar...


[Chorus]

e|------------------------------------------------------------------|
B|----------------------------------------------------------7-5-----|
G|--4-4-4-4-4-4-4-4---------------------------------------------6-7-| x2
D|--4-4-4-4-4-4-4-4-5-5-5-5-5-5-5-5-2-2-2-2-2-2-2-2-4-4-4-4---------|
A|--2-2-2-2-2-2-2-2-5-5-5-5-5-5-5-5-2-2-2-2-2-2-2-2-4-4-4-4---------|
E|------------------3-3-3-3-3-3-3-3-0-0-0-0-0-0-0-0-2-2-2-2---------|

   Give me something I can feel...

e|----------------------------------------------------------|
B|----------------------------------------------------------|
G|--7---7--7-7-7----6--6-7-6--4---4--4-4-4-----------7--6---|
D|--7---7--7-7-7--------------4---4--4-4-4-----5-5-5--------|
A|--5---5--5-5-5----7--7-7-7--2---2--2-2-2------------------|
E|------------------5--5-5-5--------------------------------|

   Is it all in my head...

e|------------------------------------------------------------------------------------|
B|---------------------------------------------------------------------------8-6------|
G|--7---7--7-7-7----6--6-7-6--4---4--4-4-4--------------4---4--4-4-4-------------7-8--|
D|--7---7--7-7-7--------------4---4--4-4-4-5---5--5-5-5-4---4--4-4-4-5---5-5----------|
A|--5---5--5-5-5----7--7-7-7--2---2--2-2-2-5---5--5-5-5-2---2--2-2-2-5---5-5----------|
E|------------------5--5-5-5---------------3---3--3-3-3--------------3---3-3----------|

   And I know that I'm...

e|---------------------------------------------------------------|
B|---------------------------------------------------------------|
G|--5-5-5-5-5-5-5-5-4-4-4-4-4-4-4-4------------------------------| x2
D|--3-3-3-3-3-3-3-3-2-2-2-2-2-2-2-2-6---6--6-6-6-6-5---5--5-5-5--|
A|--3-3-3-3-3-3-3-3-2-2-2-2-2-2-2-2-4---4--4-4-4-4-3---3--3-3-3--|
E|----------------------------------4---4--4-4-4-4-3---3--3-3-3--|


[Verse 2]

  PM
e|------------------------------------------------------------------|
B|------------------------------------------------------------------|
G|------------------------------------------------------------------|
D|------------------------------------------------------------------|
A|--3-3-3-3-3-3-3-3-3-3-3-3-3-6-5---3-3-3-3-3-3-3-3-3-3-3-3-3-6-5---|
E|--------------------------------6-------------------------------6-|

   There's no guarantee that I'll be forgiven...

e|------------------------------------------------------------------|
B|------------------------------------------------------------------|
G|------------------------------------------------------------------| x2 (repeat two bars)
D|------------------------------------------------------------------|
A|------------------------------------------------------------------|
E|--4-4-4-4-4-4-4-4-4-4-4-4-4-6-4-3-1-1-1-1-1-1-1-1-1-1-1-1-1-1-1-1-|

   To do for you...

Guitar 2 - comes in on the second time

e|----------------------------------------------------------------------|
B|-----------11------------------11-------------11------------------11--|
G|-----12--------12--------12-------------12--------12--------12--------|
D|--10----10---------10-10----10-------10----10---------10-10----10-----|
A|----------------------------------------------------------------------|
E|----------------------------------------------------------------------|

   And I want to kill all the love that's for you...

e|----------------------------------------------------------------------|
B|----------------------------------------------------------------------|
G|-----------12------------------12-------------12------------------12--| 
D|-----13--------13--------13-------------13--------13--------13--------|
A|--11----11---------11-11----11-------11----11---------11-11----11-----|
E|----------------------------------------------------------------------|

   You'll look at me...
 
                               PM (gradually lift)
e|--------------------------------------------------------------|
B|--------------------------------------------------------------|
G|--------------------------------------------------------------|
D|--8--------6--------8--------6-6-6-6-6-6-6-6-5-5-5-5-5-5-5-5--|
A|--8--------6--------8--------6-6-6-6-6-6-6-6-5-5-5-5-5-5-5-5--|
E|--6--------4--------6--------4-4-4-4-4-4-4-4-3-3-3-3-3-3-3-3--|

   Always staring from afar...


[Chorus]

e|------------------------------------------------------------------|
B|----------------------------------------------------------7-5-----|
G|--4-4-4-4-4-4-4-4---------------------------------------------6-7-| x2
D|--4-4-4-4-4-4-4-4-5-5-5-5-5-5-5-5-2-2-2-2-2-2-2-2-4-4-4-4---------|
A|--2-2-2-2-2-2-2-2-5-5-5-5-5-5-5-5-2-2-2-2-2-2-2-2-4-4-4-4---------|
E|------------------3-3-3-3-3-3-3-3-0-0-0-0-0-0-0-0-2-2-2-2---------|

   Give me something I can feel...

e|----------------------------------------------------------|
B|----------------------------------------------------------|
G|--7---7--7-7-7----6--6-7-6--4---4--4-4-4-----------7--6---|
D|--7---7--7-7-7--------------4---4--4-4-4-----5-5-5--------|
A|--5---5--5-5-5----7--7-7-7--2---2--2-2-2------------------|
E|------------------5--5-5-5--------------------------------|

   Is it all in my head...

e|-------------------------------------------------------|
B|-------------------------------------------------------|
G|--7---7--7-7-7----6--6-7-6--4---4--4-4-4---------------|
D|--7---7--7-7-7--------------4---4--4-4-4-5---5--5-5-5--|
A|--5---5--5-5-5----7--7-7-7--2---2--2-2-2-5---5--5-5-5--|
E|------------------5--5-5-5---------------3---3--3-3-3--|

   And I know that I'm...

e|-----------------------------------------------------------------------------------------------------------|
B|-----------------------------------------------------------------------------------------------------------|
G|-4---4--4-4-4----------------------------------------4---4--4-4-4------------------------------------------|
D|-4---4--4-4-4-4---4--4-4-4-5---5--5-5-5-5---5--5-5-5-4---4--4-4-4-5---5--5-5-5-2---2--2-2-2-4---4--4-4-4-4-|
A|-2---2--2-2-2-4---4--4-4-4-5---5--5-5-5-5---5--5-5-5-2---2--2-2-2-5---5--5-5-5-2---2--2-2-2-4---4--4-4-4-4-|
E|--------------2---2--2-2-2-3---3--3-3-3-3---3--3-3-3--------------3---3--3-3-3-0---0--0-0-0-2---2--2-2-2-2-|

   Say that you will really...


   Give me something I can feel/I'm too afraid to ask
   What is it I need to change, 

  PM (gradually lift)
e|-----------------------------------|
B|-----------------------------------|
G|-----------------------------------|
D|--2-2-2-2-2-2-2-2-4-4-4-4-4-4-4-4--|
A|--2-2-2-2-2-2-2-2-4-4-4-4-4-4-4-4--|
E|--0-0-0-0-0-0-0-0-2-2-2-2-2-2-2-2--|

  For you to love me back

e|----------------------------------------------------------|
B|----------------------------------------------------------|
G|--7---7--7-7-7----6--6-7-6--4---4--4-4-4-----------7--6---|
D|--7---7--7-7-7--------------4---4--4-4-4-----5-5-5--------|
A|--5---5--5-5-5----7--7-7-7--2---2--2-2-2------------------|
E|------------------5--5-5-5--------------------------------|

   Is it all in my head...

e|------------------------------------------------------------------------------------|
B|---------------------------------------------------------------------------8-6------|
G|--7---7--7-7-7----6--6-7-6--4---4--4-4-4--------------4---4--4-4-4-------------7-8--|
D|--7---7--7-7-7--------------4---4--4-4-4-5---5--5-5-5-4---4--4-4-4-5---5-5----------|
A|--5---5--5-5-5----7--7-7-7--2---2--2-2-2-5---5--5-5-5-2---2--2-2-2-5---5-5----------|
E|------------------5--5-5-5---------------3---3--3-3-3--------------3---3-3----------|

   And I know that I'm...

e|---------------------------------------------------------------|
B|---------------------------------------------------------------|
G|--5-5-5-5-5-5-5-5-4-4-4-4-4-4-4-4------------------------------| x2
D|--3-3-3-3-3-3-3-3-2-2-2-2-2-2-2-2-6---6--6-6-6-6-5---5--5-5-5--|
A|--3-3-3-3-3-3-3-3-2-2-2-2-2-2-2-2-4---4--4-4-4-4-3---3--3-3-3--|
E|----------------------------------4---4--4-4-4-4-3---3--3-3-3--|

e|-------|
B|-------|
G|--5----|
D|--5----|
A|--3----|
E|-------|

            
Submit corrections


        The One lessons Hard to play? Try these video lessons and learn fast The One lessons
        
↑ Back to top | Tablatures and chords for acoustic guitar and electric guitar, ukulele, drums are parodies/interpretations of the original songs. You may use it for private study, scholarship, research or language learning purposes only