» » »

Warning - Sinister Smiles Live Tabs

Artists:  A B C D E F G H I J K L M N O P Q R S T U V W X Y Z # 

Sinister Smiles Live Tabs

(ver. 1) Click to play this song!
Warning
 Rating:
4.4/5 (11 votes)

 Sinister Smiles Live lessons Tabs too difficult? Try these video lessons and learn fast
 
                [Verse 1]

e|--------------------------------------------------------------------|
B|--------------------------------------------------------------------|
G|-4-4-------------------------------7-7------------------------------| x2
D|-4-4--------------5-5--------------7-7------------4-4---------------|
A|-2-2--------------5-5--------------5-5------------4-4---------------|
E|------------------3-3-----------------------------2-2---------------|

   Hey, little girl, there's something you don't know...


e|---------------------------------------------|
B|---------------------------------------------|
G|-4-----4-4--7-----7-7------------------------| x2
D|-4-----4-4--7-----7-7--5-----5-5--4-----4-4--|
A|-2-----2-2--5-----5-5--5-----5-5--4-----4-4--|
E|-----------------------3-----3-3--2-----2-2--|

   Break, break, just break apart

e|-----------------------|
B|-----------------------|
G|-11----9----7----6--3--| x2
D|-----------------------|
A|-----------------------|
E|-----------------------|

[Verse 2]
   PM
e|-----------------------------------------------------------------|
B|-----------------------------------------------------------------|
G|-4-4-4-4-4-4-4-4-----------------7-7-7-7-7-7-7-7-----------------| x2
D|-4-4-4-4-4-4-4-4-5-5-5-5-5-5-5-5-7-7-7-7-7-7-7-7-4-4-4-4-4-4-4-4-|
A|-2-2-2-2-2-2-2-2-5-5-5-5-5-5-5-5-5-5-5-5-5-5-5-5-4-4-4-4-4-4-4-4-|
E|-----------------3-3-3-3-3-3-3-3-----------------2-2-2-2-2-2-2-2-|

  Hey little girl, do you feel satisfied...

e|--------------------------------------------------------------------------------------------------|
B|--------------------------------------------------------------------------------------------------|
G|--------------------------------------------------------------------------------------------------|
D|-5--5-5--5-5-5-7--7--7-7-7-9--9-9--9-9-9-4--4-4--4-4-4-5--5-5--5-5-5-7--7--7-7-7-9--9-9--9-9-9-4--|
A|-5--5-5--5-5-5-7--7--7-7-7-9--9-9--9-9-9-4--4-4--4-4-4-5--5-5--5-5-5-7--7--7-7-7-9--9-9--9-9-9-4--|
E|-3--3-3--3-3-3-5--5--5-5-5-7--7-7--7-7-7-2--2-2--2-2-2-3--3-3--3-3-3-5--5--5-5-5-7--7-7--7-7-7-2--|

   Walk away from all the horror...

[Chorus]

e|---------------------------------------------------------------|
B|---------------------------------------------------------------|
G|-4--4-4---4-4-4-7--7-7---7-7-7---------------------------------| x2
D|-4--4-4---4-4-4-7--7-7---7-7-7-5-5-5-5-5-5-5-5-4-4-4-4-4-4-4-4-|
A|-2--2-2---2-2-2-5--5-5---5-5-5-5-5-5-5-5-5-5-5-4-4-4-4-4-4-4-4-|
E|-------------------------------3-3-3-3-3-3-3-3-2-2-2-2-2-2-2-2-|

   Both hands tied up...

e|---------------------------------------------|
B|---------------------------------------------|
G|-4-----4-4--7-----7-7------------------------| x2
D|-4-----4-4--7-----7-7--5-----5-5--4-----4-4--|
A|-2-----2-2--5-----5-5--5-----5-5--4-----4-4--|
E|-----------------------3-----3-3--2-----2-2--|

   Break, break, just break apart

e|---------------------------------------------------------------|
B|---------------------------------------------------------------|
G|--11-11-9-9-7-7-6-6-4-4-3-3---------11-11-9-9-7-7-6-6-7-7-9-9--|
D|----------------------------5-5-4-4----------------------------|
A|---------------------------------------------------------------|
E|---------------------------------------------------------------|


[Verse 2]

e|--------------------------------------------------------------------------|
B|--------------------------------------------------------------------------|
G|-4-4--4-4-----------------------------7-7--7-7----------------------------| x2
D|-4-4--4-4--2-4-2-0-5-5--5-5-----------7-7--7-7-4-5-4----4-4--4-4----------|
A|-2-2--2-2----------5-5--5-5--4-5-4-5--5-5--5-5-------7--4-4--4-4--4-5-4-2-|
E|-------------------3-3--3-3-----------------------------2-2--2-2----------|

   You'll never admit you were born to be a pawn...

e|-------------------------------------------------------|
B|-------------------------------------------------------|
G|-------------------------------------------------------| x2
D|-5--5-5--5-5-5-7--7--7-7-7-9--9-9--9-9-9-4--4-4--4-4-4-|
A|-5--5-5--5-5-5-7--7--7-7-7-9--9-9--9-9-9-4--4-4--4-4-4-|
E|-3--3-3--3-3-3-5--5--5-5-5-7--7-7--7-7-7-2--2-2--2-2-2-|

   Pay the price and grab the dagger...

[Chorus]

e|---------------------------------------------------------------|
B|---------------------------------------------------------------|
G|-4--4-4---4-4-4-7--7-7---7-7-7---------------------------------| x2
D|-4--4-4---4-4-4-7--7-7---7-7-7-5-5-5-5-5-5-5-5-4-4-4-4-4-4-4-4-|
A|-2--2-2---2-2-2-5--5-5---5-5-5-5-5-5-5-5-5-5-5-4-4-4-4-4-4-4-4-|
E|-------------------------------3-3-3-3-3-3-3-3-2-2-2-2-2-2-2-2-|

   Both hands tied up...

Break, break, just break apart  x6

e|---------------------------------------------|
B|---------------------------------------------|
G|-4-----4-4--7-----7-7------------------------| x4
D|-4-----4-4--7-----7-7--5-----5-5--4-----4-4--|
A|-2-----2-2--5-----5-5--5-----5-5--4-----4-4--|
E|-----------------------3-----3-3--2-----2-2--|

   Break, break, just break apart

e|---------------------------------------------------------------|
B|---------------------------------------------------------------|
G|-4--4-4---4-4-4-7--7-7---7-7-7---------------------------------| x2
D|-4--4-4---4-4-4-7--7-7---7-7-7-5-5-5-5-5-5-5-5-4-4-4-4-4-4-4-4-|
A|-2--2-2---2-2-2-5--5-5---5-5-5-5-5-5-5-5-5-5-5-4-4-4-4-4-4-4-4-|
E|-------------------------------3-3-3-3-3-3-3-3-2-2-2-2-2-2-2-2-|

   Both hands tied up...

e|-------------------------------------------|
B|-----------10------10--8------8--7------7--|
G|-------------------------------------------| x5
D|-9------9----------------------------------|
A|-------------------------------------------|
E|-------------------------------------------|

   Break, break, just break apart

e|-------------------------------------------------------------------------17----17-17---|
B|--------10----10-12----12-14---14-14-15----15-15-17----17-17-19----19-19---------------|
G|---------------------------------------------------------------------------------------|
D|-9----9--------------------------------------------------------------------------------|
A|---------------------------------------------------------------------------------------|
E|---------------------------------------------------------------------------------------|

e|-19-19-19-19-19-19-19-19-19-19-19-19-19-19-19-19------|
B|------------------------------------------------------|
G|-------------------------------------------------4----|
D|-------------------------------------------------4----|
A|-------------------------------------------------2----|
E|------------------------------------------------------|

            
Submit corrections


        Sinister Smiles Live lessons Hard to play? Try these video lessons and learn fast Sinister Smiles Live lessons
        
↑ Back to top | Tablatures and chords for acoustic guitar and electric guitar, ukulele, drums are parodies/interpretations of the original songs. You may use it for private study, scholarship, research or language learning purposes only