Home » W » War »

War - Cisco Kid Bass

Artists:  A B C D E F G H I J K L M N O P Q R S T U V W X Y Z # 

Cisco Kid Bass

(ver. 2) Click to play this song!
War
[Intro]

G|----------------------------------------------------------------------------------------|
D|----------------------------------------------------------------------------------------|
A|--3-5-3-5--------2-3-2-3-------------3-5-3-5---------------3-5-3-5-------------3-5-3-5--|
E|---------------------------1-3-1-3-------------0-1-3-5-1~------------0-1-0-1------------|

G|--------------------------------------------------------------------------------|
D|--------------------------------------------------------------------------------|
A|--2-3-2-3-------------3-5-3-5---------------3-5-3-5----------3-5-----3-5-----3--|
E|------------1-3-1-3-------------0-1-3-5-1~-----------------5-------5-------5----|


[Chorus]

G|---------------------------------------------------------------------------|
D|--------------------------3-5-7--------------------------------------------|
A|--5-----3-5-----3-5-----3-------8---3-5-----3-5-----3-5-----3-----------3--|
E|------5-------5-------5-----------5-------5-------5-------5---1-3-5-1-5----|


[Verse]

G|-----------------------------------------------------------------------------|
D|-----------------------------------------------------------------------------|
A|--5-----3-5-----3-5-----3----------------5-----3-5-----3-5-----3-------------|
E|------5-------5-------5---0-3-1-3-1~---------5-------5-------5---0-3-1-3-1~--|

G|-----------------------------------------------------------------------------|
D|--------------------------3-5-7----------------------------------------------|
A|--5-----3-5-----3-5-----3-------8---3-5-----3-5-----3-5-----3-------------3--|
E|------5-------5-------5-----------5-------5-------5-------5---0-1-3-5-1-5----|

G|-----------------------------------------------------------------------------|
D|-----------------------------------------------------------------------------|
A|--5-----3-5-----3-5-----3----------------5-----3-5-----3-5-----3-------------|
E|------5-------5-------5---0-3-1-3-1~---------5-------5-------5---0-1-3-5-1~--|

G|----------------------------------------------------------------------------|
D|--------------------------3-5-7---------------------------------------------|
A|--5-----3-5-----3-5-----3-------8-----3-5-----3-5-----3-5-----3-------------|
E|------5-------5-------5-----------5-5-------5-------5-------5---0-1-3-5-1~--|

G|-----------------------------------------------------------------------------|
D|-----------------------------------------------------------------------------|
A|--5-----3-5-----3-5-----3----------------5-----3-5-----3-5-----3-------------|
E|------5-------5-------5---0-3-1-3-1~---------5-------5-------5---0-1-3-0-1~--|


[Pre-Chorus]

G|----------------------------------------------------------|
D|----------------------------------------------------------|
A|--3~~-4~~-5~~---------------3~~-4~~-5~~----------------3--|
E|---------------0-1-3-5-1~----------------0-1-0-1-0-3-5----|


[Verse]

G|-----------------------------------------------------------------------------|
D|--------------------------3-5-7----------------------------------------------|
A|--5-----3-5-----3-5-----3-------8---3-5-----3-5-----3-5-----3-------------3--|
E|------5-------5-------5-----------5-------5-------5-------5---0-1-3-5-1-5----|

G|----------------------------------------------------------------------|
D|----------------------------------------------------------------------|
A|--5-----3-5-----3-5-----3-5-----3-5-----3-5-----3-5-----3-------------|
E|------5-------5-------5-------5-------5-------5-------5---0-1-3-5-1~--|

G|----------------------------------------------------------------------------|
D|--------------------------3-5-7---------------------------------------------|
A|--5-----3-5-----3-5-----3------------3-5-----3-5-----3-5-----3-----------3--|
E|------5-------5-------5------------5-------5-------5-------5---1-1-1-1-5----|

G|------------------------------------------------------------------------|
D|--------------------------3-5-7-----------------------------------------|
A|--5-----3-5-----3-5-----3------------3-5-----3-5-----3-5-----3-5-----5--|
E|------5-------5-------5------------5-------5-------5-------5-------5----|


[Pre-Chorus]

G|------------------------------------------------------|
D|------------------------------------------------------|
A|--3~~-4~~-5~~---------------3~~-4~~-5~~------------3--|
E|---------------0-1-3-5-1~----------------0-1-0-1-5----|


[Chorus]

G|---------------------------------------------------------------------------|
D|--------------------------3-5-7--------------------------------------------|
A|--5-----3-5-----3-5-----3-------8---3-5-----3-5-----3-5-----3-----------3--|
E|------5-------5-------5-----------5-------5-------5-------5---1-3-5-1-5----|

G|--------------------------------------------------------------------------------|
D|-------------------------------------------------------------------3-5-7--------|
A|--5-----3-5-----3-5-----3----------------5-----3-5-------3-5-----3-------8---3--|
E|------5-------5-------5---0-3-1-3-1~---------5-------5-5-------5-----------5----|


[Outro]

G|---------------------------------------------------------------------------|
D|---------------------------------------------------------------------------|
A|--5-----3-5-----3-5-----3-5-----3-5-----3-5-----3-5-----3---------------3--|
E|------5-------5-------5-------5-------5-------5-------5---0-1-1-3-3-5-5----|

G|-----------------------------------------------------------------------|
D|-----------------------------------------------------------------------|
A|--5-----3-5-----3-5-----3-5-----3-5-----3-5-----3-5-----3-----------3--|
E|------5-------5-------5-------5-------5-------5-------5---1-3-5-1-5----|

(Starts Fading Out...)

G|------------------------------------------------------------------------------|
D|------------------------------------------------------------------------------|
A|--5-----3-5-----3-5-----3----------------5-----3-5-------3-5-----3-5-----3-5--|
E|------5-------5-------5---0-3-1-3-1~---------5-------5-5-------5-------5------|            
Submit corrections

↑ Back to top | Tablatures and chords for acoustic guitar and electric guitar, ukulele, drums are parodies/interpretations of the original songs. You may use it for private study, scholarship, research or language learning purposes only