Home » W » Wanda Jackson »

Wanda Jackson - Wasted Chords

Artists:  A B C D E F G H I J K L M N O P Q R S T U V W X Y Z # 

Wasted Chords

(ver. 1) Click to play this song!
Wanda Jackson
[Verse 1]
N.C.          A          B          E
Wasted lonely nights wasted times I cry
                 A         B                             E
Wasted a love so true I've wasted all the love I had for you
 
[Verse 2]
                A                   B                   E
Wasted a lovin' heart my hands were tied right from the start
                               A        B                                 E
Your carefree heart will never see just what this wasted love has done to me
 
[Bridge]
             A                E                  F#                  B
It's made me cry it's made me lonely it makes me sad why love's disarrayed
 
[Verse 3]
    E            A         B            E
Wasted years and years wasted tears and tears
                        A      B                        E
Wasted love that was to be now all I have is wasted memory
 
[Instrumental]
  E               A              B                 E
e|---------------|--------------|-----------------|----------11-12br~-|
B|--9~-9br-7br---|--------------|-----------------|-------12----------|
G|-------------9-|----------8-9-|9/11~-9-8---8-11-|9br-13-------------|
D|9--------------|9/11br-11-----|----------9------|-------------------|
A|---------------|--------------|-----------------|-------------------|
E|---------------|--------------|-----------------|-------------------|
 
[Bridge]
             A                E                  F#                  B
It's made me cry it's made me lonely it makes me sad why love's disarrayed
 
[Outro]
    E            A         B            E
Wasted years and years wasted tears and tears
                        A      B                        E
Wasted love that was to be now all I have is wasted memory
  E
e|---------10/11-11/12-|
B|--7-9-7--------------|
G|9--------------------| Coda
D|---------------------|
A|---------------------|
E|---------------------|
            
Submit corrections

↑ Back to top | Tablatures and chords for acoustic guitar and electric guitar, ukulele, drums are parodies/interpretations of the original songs. You may use it for private study, scholarship, research or language learning purposes only