» » »

Waking Ashland - Tortoise And The Hare Tabs

Artists:  A B C D E F G H I J K L M N O P Q R S T U V W X Y Z # 

Tortoise And The Hare Tabs

(ver. 1) Click to play this song!
Waking Ashland
 Rating:
4/5 (4 votes)


 Tortoise And The Hare lessons Tabs too difficult? Try these video lessons and learn fast
 
                Band: Waking Ashland

Tuning: Capo 2nd Fret Standard

Intro/Verse
e|------------------3~---3--2----------------3~---3----2----------|
B|------------------3~---3--3----------------3~---3----3----------|
G|------------------0~---0--2----------------0~---0----2----------|
D|------------------2~---2--0-----------2----2~---2----0----------|
A|--------0----2----3~---2---------0--------3~----2---------------|
E|----3------------------0-----3------------------0---------------|

Chorus
e|-----3------2-----3-------3-----2-----3--3--2--3---3--2---3-----|
B|-----3------3-----3-------3-----3-----3--3--3--3---3--3---3-----|
G|-----0------2-----0-------0-----2-----0--0--2--0---0--2---0-----|
D|-----2------0-----2-------2-----0-----2--2--0--2---2--0---2-----|
A|-----3------------2-------3-----------2--3-----2---3------2-----|
E|------------------0-------------------0--------0----------0-----|

Verse
e|------------------3~---3--2----------------3~---3----2----------|
B|------------------3~---3--3----------------3~---3----3----------|
G|------------------0~---0--2----------------0~---0----2----------|
D|------------------2~---2--0-----------2----2~---2----0----------|
A|--------0----2----3~---2---------0--------3~----2---------------|
E|----3------------------0-----3------------------0---------------|
eventually do something like this before the second Chorus
e|----------------------------------------0----0--0---------------|
B|----0----0----0---0----0--0----0---0----3----8--10--------------|
G|----9----11---12--14---9--11---12--14---------------------------|
D|----------------------------------------------------------------|
A|----------------------------------------------------------------|
E|----------------------------------------------------------------|

Chorus
e|-----3------2-----3-------3-----2-----3--3--2--3---3--2---3-----|
B|-----3------3-----3-------3-----3-----3--3--3--3---3--3---3-----|
G|-----0------2-----0-------0-----2-----0--0--2--0---0--2---0-----|
D|-----2------0-----2-------2-----0-----2--2--0--2---2--0---2-----|
A|-----3------------2-------3-----------2--3-----2---3------2-----|
E|------------------0-------------------0--------0----------0-----|

Bridge
e|----3-----3-----2------3-----3-----2----------------------------|
B|----3-----3-----3------3-----3-----3----------------------------|
G|----0-----0-----2------0-----0-----2----------------------------|
D|----2-----2-----0------2-----2-----0----------------------------|
A|----2-----3------------2-----3----------------------------------|
E|----0------------------0----------------------------------------|

End on the Chorus again!!!!
Hope it works... thanks and love!
            
Submit corrections



        Tortoise And The Hare lessons Hard to play? Try these video lessons and learn fast Tortoise And The Hare lessons
        
↑ Back to top | Tablatures and chords for acoustic guitar and electric guitar, ukulele, drums are parodies/interpretations of the original songs. You may use it for private study, scholarship, research or language learning purposes only