» » »

Waking Ashland - Counting The Stars Tabs

Artists:  A B C D E F G H I J K L M N O P Q R S T U V W X Y Z # 

Counting The Stars Tabs

(ver. 1) Click to play this song!
Waking Ashland
 Rating:
4.3/5 (6 votes)


 Counting The Stars lessons Tabs too difficult? Try these video lessons and learn fast
 
                This is a great band out of the San Fernando Valley, They are called Waking Ashland.

This tab is pretty easy it's in standard tunning and it's only 3 chords.
TABLE:
~~=let ring
[INTRO]
It starts out with a great piano part with an accoustic guitar strunning the chords once
each in the back round
[VERSE ONE]
e]---------------------------------------]
b]---------------------------------------]
g]---8-----------------------------------]
d]---8-------- 8---------6~~-------------]repeat 4X
a]---6-------- 8---------6~~-------------]
E]-------------6---------4~~-------------]
     Please   tell me    you're for real... 


e]-------------------------------------]
b]-------------------------------------]
g]---8---------------------------------]
d]---8--X4---8--------6----------------] repeat 2X
a]---6--------8--X4---6--X8------------]
E]------------6--------4---------------] 
    Please    tell me you feel something... 
 
e]-------------------------------]
b]-------------------------------]
g]---8---------------------------]
d]---8--X4---8--------6----------]
a]---6-------8--X4----6--X8------]
E]-----------6--------4----------]
     Oh,     shame    on you. 
e]---------------------------]
b]---------------------------]
g]---8-----------------------]
d]---8--X8---------6---------]
a]---6-------------6--X8-----]
E]-----------------4---------]
     You cast your spell on me. 

[CHORUS]
e]------------------------------]
b]------------------------------]
g]---8--------------------------]
d]---8--X4---8--------6---------]Repeat 4X
a]---6-------8--X4----6--X8-----]
E]-----------6--------4---------]
     La da   da da    The stars align for you and I tonight...

[VERSE TWO]
*Play one time W/O Lyrics
e]--------------------]
b]--------------------]
g]---8-8--------------]
d]---8-8---8-8---6-6--] Repeat 9X
a]---6-6---8-8---6-6--]
E]---------6-6---4-4--]
     I'm   so    unprepared... 

[PLAY THE CHORUS]

[BRIDGE]
*Strum each chord according to the lyrics
e]--------------------------]
b]--------------------------]
g]---8----------------------]
d]---8------8------6~~------]Repeat 6X
a]---6------8------6~~------]
E]----------6------4~~------]
     So     hold   on to me... 

[PLAY THE CHORUS]
[OUTRO]
{*Play this as if you are palying the chorus}
e]------------------------------]
b]------------------------------]
g]---8--------------------------]
d]---8--X4---8--------6---------]Repeat 4X
a]---6-------8--X4----6--X8-----]
E]-----------6--------4---------]
      I           need     you, 
      I           miss     you. 
END ON:
e]-------]
b]-------]
g]-------]
d]---6~~-]
a]---6~~-]
E]---4---]

I hope you like it, it's my first.
If you have any questions let me know
            
Submit corrections



        Counting The Stars lessons Hard to play? Try these video lessons and learn fast Counting The Stars lessons
        
↑ Back to top | Tablatures and chords for acoustic guitar and electric guitar, ukulele, drums are parodies/interpretations of the original songs. You may use it for private study, scholarship, research or language learning purposes only