» » »

Wakefield - Heavens Coming Bass

Artists:  A B C D E F G H I J K L M N O P Q R S T U V W X Y Z # 

Heavens Coming Bass

(ver. 1) Click to play this song!
Wakefield
 Rating:
4.4/5 (17 votes)

 Heavens Coming  lessons Tabs too difficult? Try these video lessons and learn fast
 
                [Intro]
(No Bass)

[Verse 1 Bass at 0:40]
G|---------------------------------------------------|
D|---------------------------------------------------|
A|5-----3-5-----3-5-------3-5------------------------|
E|-6-6-1---6-6-1-----6-6-1---6-6-1H------------------|

[Chorus 1]
G|--------------------------------------------------------------------------------|
D|--------------------------------------------------------------------------------|
A|--------------------------------------------------------------------------------|
E|1-1-1-1-5-5-5-5-6-6-6-6-6-6-6-6-1-1-1-1-5-5-5-5-6-6-6-6-6-6-6-6-3-3-3-3-3-3-3-6H|

[Verse 2]
G|-----------------------------------------------------------------------------------------------|
D|-----------------------------------------------------------------------------------------------|
A|5-5-5-5---------------3-3-3-3-5-5-5-5---------------3-3-3-3-5-5-5-5-------3-3-3-3-------5-5-5-5|
E|-------6-6-6-6-1-1-1-1---------------6-6-6-6-1-1-1-1---------------6-6-6-6-------1-1-1-1-------|

G|--------------------------------------------------------------------|
D|--------------------------------------------------------------------|
A|3-3-3-3-3-----------------------------------------------------------|
E|---------6-6-6-6-1-1-1-1-3-3-3-3-3-5-5-6H-1-1-1-1-------------------|

[Chorus 2]
G|-----------------------------------------------------------------------------------------------|
D|-----------------------------------------------------------------------------------------------|
A|-----------------------------------------------------------------------------------------------|
E|1-1-1-1-5-5-5-5-6-6-6-6-6-6-6-6-1-1-1-1-5-5-5-5-6-6-6-6-6-6-6-6-1-1-1-1-5-5-5-5-6-6-6-6-6-6-6-6]

G|---------------------------------------------------------------|
D|---------------------------------------------------------------|
A|---------------------------------------------------------------|
E|3-3-3-3-3-3-5-5-1-1-1-1-6-6-6-6-3-3-3-3-5-5-5-5-6-6-6-6-6-6-6-6|

[Bridge]
G|---------------------------------------------------------------------------|
D|---------------------------------------------------------------------------|
A|3-3-3-3-3-3-3-3---------------3-3-3-3-3-3-3-3---------------3-3-3-3-3-3-3-3|
E|---------------6-6-6-6-6-6-6-6---------------6-6-6-6-6-6-6-6---------------|

G|------------------|
D|------------------|
A|------------------|
E|6-6-6-6-6-6-6-6-6H|

[Verse 3]
G|-----------------------------------------------------------------|
D|-----------------------------------------------------------------|
A|5-----5-----5-----5----------------------------------------------|
E|-6-6-1-6-6-1-6-6-1-6-6-1H)---------------------------------------|

[Chorus 3]
G|-----------------------------------------------------------------------------------------------|
D|-----------------------------------------------------------------------------------------------|
A]-----------------------------------------------------------------------------------------------|
E|1-1-1-1-5-5-5-5-6-6-6-6-6-6-6-6-1-1-1-1-5-5-5-5-6-6-6-6-6-6-6-6-1-1-1-1-5-5-5-5-6-6-6-6-6-6-6-6|

G|-------------------------------|
D|-------------------------------|
A|-------------------------------|
E|3-3-3-3-3-3-5-5-6-6-6-6-6-6-6-6|

G|-------------------------------------------------------------------------------|
D|-------------------------------------------------------------------------------|
A|-------------------------------------------------------------------------------|
E|1-1-1-1-5-5-5-5-6-6-6-6-6-6-6-6-1-1-1-1-5-5-5-5-6-6-6-6-6-6-6-6-1-1-1-1-5-5-5-5|

G|----------------------------------------------------------------------|
D|----------------------------------------------------------------------|
A|----------------------------------------------------------------------|
E|6-6-6-6-6-6-6-6-3-3-3-3-3-3-5-5-6-6-6-6-6-6-6-6-3-3-3-3-3-3-5-5-5-5-6H|            
Submit corrections


        Heavens Coming  lessons Hard to play? Try these video lessons and learn fast Heavens Coming  lessons
        
↑ Back to top | Tablatures and chords for acoustic guitar and electric guitar, ukulele, drums are parodies/interpretations of the original songs. You may use it for private study, scholarship, research or language learning purposes only