» » »

Von Bondies - This Is Our Perfect Crime Bass

Artists:  A B C D E F G H I J K L M N O P Q R S T U V W X Y Z # 

This Is Our Perfect Crime Bass

(ver. 1) Click to play this song!
Von Bondies
 Rating:
4/5 (4 votes)

 This Is Our Perfect Crime lessons Tabs too difficult? Try these video lessons and learn fast
 
                DRUM INTRO

Intro

G----------------------------------------------|
D----------------------------------------------|
A-44--4-------------------44--4----------------|
E-------44--4-55--5-22--2-------55--5-00--0-44-|

Verse

G--------------------------------------------------------------------|
D--------------------------------------------------------------------|
A-44444444--------------------------44444444-------------------------|
E---------44444444555555555522222222--------555555550000000044444444-|


Pre-chrous

G------------------------------------------------------------------|
D------------------------------------------------------------------|
A-4-4-4-4-------------------------4-4-4-4--------------------------|
E---------4-4-4-4-5-5-5-5-2-2-2-2---------5-5-5-5-0-0-0-0-44444444-|


Chrous (11'S NOT 1'S)

G----------------9------------------9----------------9------------|
D--------11-9-11--------9-11-9-9-11----------11-9-11--------------|
A----/11-----------12-12-------------7\--/11-----------9999-------|
E-9\-------------------------------------------------------121112-|

G----------------9------------------9----------------9-----------------|
D--------11-9-11--------9-11-9-9-11----------11-9-11-------------------|
A----/11-----------12-12-------------7\--/11-----------/11111111111111-|
E-9\-------------------------------------------------------------------|


Post-chorus

G--------|
D--------|
A-44--44-|
E--------|

Verse

Pre-chorus

Chorus


Breakdown

G--------------------------------------|
D--------------------------------------|
A-4--6-7------------4--6-7---9---12-11-| X2
E----------5---7-8---------------------|


Chorus (just guitar)

G-----------------------------------|
D-----------------6-----------------|
A-4---------------4--------------\9-|
E-----------------------------------|

Chorus X2


Outro

G------------------|
D---------------6--|
A-44--44--44--44-4-|
E------------------|
            
Submit corrections


        This Is Our Perfect Crime lessons Hard to play? Try these video lessons and learn fast This Is Our Perfect Crime lessons
        
↑ Back to top | Tablatures and chords for acoustic guitar and electric guitar, ukulele, drums are parodies/interpretations of the original songs. You may use it for private study, scholarship, research or language learning purposes only