» » »

Von Bondies - No Regrets Bass

Artists:  A B C D E F G H I J K L M N O P Q R S T U V W X Y Z # 

No Regrets Bass

(ver. 1) Click to play this song!
Von Bondies
 Rating:
4/5 (4 votes)

 No Regrets lessons Tabs too difficult? Try these video lessons and learn fast
 
                #  does not support copyright infringement or violating the rights of any artist   #
#  or legal entity. If you feel that the content of this file may be violating     #
#  copyright law, you may not use the information displayed here in any way.       #

The Von Bondies


Intro:
G ---------|   Let Ring as guitar does..                                    
D ---------|        
A -0-------|
E ---------|

Intro verse:
G------------------------------------|x3                                      
D -----------------------------------|        
A ------------------------14--12-----|
E -12--12--12--12--12--12--------14--|

Verse Fill
G -----------------------------| 
D -----------------------------|   
A -----------------------------|
E -7-7---3-3---5-5---3-3-------| 

verse:
G------------------------------------|x3                                      
D -----------------------------------|        
A ------------------------14--12-----|
E -12--12--12--12--12--12--------14--|

Verse Fill other part                 small fill (I'm sure its bass =|)
G -----------------------------------|--9h7---| x1
D -----------------------------------|-----9--|
A --2-2-----------------55-66-7-7-7-7|--------|
E -------3-3--5-5--3-3---------------|--------|

verse:
G------------------------------------|x6                                      
D -----------------------------------|        
A ------------------------14--12-----|
E -12--12--12--12--12--12--------14--|


Verse Fill
G -----------------------------| x1 
D -----------------------------|
A -----------------------------|
E -7-7---3-3---5-5---3-3-------| 

verse:
G------------------------------------|x3                                      
D -----------------------------------|        
A ------------------------14--12-----|
E -12--12--12--12--12--12--------14--|


Verse Fill other part                 no fill just the 7 (not ringing out)
G -----------------------------------|--------| x1
D -----------------------------------|--------|
A --2-2-----------------55-66-7-7-7-7|-7------|
E -------3-3--5-5--3-3---------------|--------|

verse:
G------------------------------------|x6                                      
D -----------------------------------|        
A ------------------------14--12-----|
E -12--12--12--12--12--12--------14--|

Verse Fill
G -----------------------------| x1 
D -----------------------------|
A -----------------------------|
E -7-7---3-3---5-5---3-3-------| 

Verse (alternate fill):
G --------------|  x1                                     
D --------------|        
A --------------|
E -0--0--0--0---|

Verse Fill other part                 just the 7 played 
G -----------------------------------|--------| x1
D -----------------------------------|--------|
A --2-2-----------------55-66-7-7-7-7|-7-7-7-7|
E -------3-3--5-5--3-3---------------|--------|

Bridge                        (where 10 on E continues on to next part)
G --------------------------------| x3 
D --------------------------------|
A --------------------------------|
E --12--12--10--10--8--8--7--7-10-| 


Bridge    (bass fill)                    
G ----------------------------------| x1 
D ----------------------------------|
A ------------12--------------------|
E --12-15-12-----15-12--15____12-10-|


verse:
G------------------------------------|x6                                      
D -----------------------------------|        
A ------------------------14--12-----|
E -12--12--12--12--12--12--------14--|

Verse Fill
G -----------------------------| x1 
D -----------------------------|
A -----------------------------|
E -7-7---3-3---5-5---3-3-------|  

Verse (alternate fill):
G --------------|  x1                                     
D --------------|        
A --------------|
E -0--0--0--0---|

Verse Outro                no fill just the 7 (not ringing out)
G -----------------------------------|--------| x1
D -----------------------------------|--------|
A --2-2-----------------55-66-7-7-7-7|-7------|
E -------3-3--5-5--3-3---------------|--------|


Enjoy !~ 
        (some of the notes I use may differ from 
 your note choice, apart from that everything's correct)
            
Submit corrections


        No Regrets lessons Hard to play? Try these video lessons and learn fast No Regrets lessons
        
↑ Back to top | Tablatures and chords for acoustic guitar and electric guitar, ukulele, drums are parodies/interpretations of the original songs. You may use it for private study, scholarship, research or language learning purposes only