Home » V » Volovan »

Volovan - Cest Leur Guerre Tabs

Artists:  A B C D E F G H I J K L M N O P Q R S T U V W X Y Z # 

Cest Leur Guerre Tabs

(ver. 1) Click to play this song!
Volovan
Refrain:

e||-x-x-x-x-3--3-3-3-0h3--3-3-3-3-x-x-|5--5-5-5-s7-  7-7-7-7-7-||
B||-x-x-x-x-4--4-4-4-4-4--4-4-4-4-x-x-|7--7-7-7-s10-p8-8-8-8-8-||
G||-x-x-x-x-5--5-5-5-5-5--5-5-5-5-x-x-|6--6-6-6-s7-  7-9-9-9-9-||
D||-x-x-x-x-5--5-5-5-5-5--5-5-5-5-x-x-|7--7-7-7-s9-  9-9-9-9-9-||
A||-x-x-x-x-3--3-3-3-0-0--0-0-0-0-x-x-|5--5-5-5-s7-  7-7-7-7-7-||
E||-x-x-x-x-x--x-x-x-x-x--x-x-x-x-x-x-|x--x-x-x- x-  x-x-x-x-x-||   x6


Couplet                                      Final du couplet

e||-x-x-----5---------|--------------||      ||-x-x---------------|------------||
B||-x-x---x-x-x-x---x-|--------------||      ||-x-x------------ --|------------||
G||-x-x---x-x-x-x---x-|--x-x---------||      ||-x-x-6--6-6-6-h7-7-|7-7-7-7-7-7-||
D||-x-x---4---x-x---x-|x-x-x---------||      ||-x-x-7--7-7-7-7- 7-|7-7-7-7-7-7-||
A||-x-x-2---------x-x-|7-x-x---------||      ||-x-x-5--5-5-5-5- 5-|5-5-5-5-5-5-||
E||-x-x-----------3---|8-x-x-9-h10s0-|| x15  ||-x-x-7--7-7-7-7- 7-|7-7-7-7-7-7-||

[Refrain] x4

[Couplet]

[Refrain] x4

Couplet presque sans guitare sauf a la fin, accompagnez-le eventuellement de cordes grattees etouffees 
en rythme puis a la fin:

e||-x-x-7-x-5-x-x-3-|
B||-x-x-7-x-5-x-x-3-|
G||-x-x-7-x-6-x-x-4-|
D||-----------------|
A||-----------------|
E||-----------------|

Puis reprendre [Couplet] pour le final avec le solo de saxo.

La derniere mesure se termine sur cet accord:

e||-9--9-9-9-9-9-|
B||-8--8-8-8-8-8-|
G||-7--7-7-7-7-7-|
D||-9--9-9-9-9-9-|
A||-7--7-7-7-7-7-|
E||--------------|            
Submit corrections

↑ Back to top | Tablatures and chords for acoustic guitar and electric guitar, ukulele, drums are parodies/interpretations of the original songs. You may use it for private study, scholarship, research or language learning purposes only