Home » V » Volante Nyoy »

Volante Nyoy - Starburn Riff Tabs

Artists:  A B C D E F G H I J K L M N O P Q R S T U V W X Y Z # 

Starburn Riff Tabs

(ver. 1) Click to play this song!
Volante Nyoy
Tuning: STANDARD 8 STRING - F# B E A D G B e (B and e not shown)

G |----------------------------------------------------------------------------|
D |----------------------------------------------------------------------------|
A |----------------------------------------------------------------------------|
E |---8----------8-----------10-----7----10------------10-----------10---------|
B |----------------------7-8-----8-----------10-----------------7-8-----8------|
F#|-----8--6--8------------------------8---------8--10-------------------------|

G |----------------------------------------------------------------------------|
D |----------------------------------------------------------------------------|
A |----------------------------------------------------------------------------|
E |-7----8-----------8-----------10-----7----10------------10-----------9------|
B |--------------------------7-8-----8-----------10-----------------7-8--------|
F#|----8----8--6--8------------------------8---------8--10---------------------|

G |----------------------------------------------------------------------------|
D |----------------------------------------------------------------------------|
A |-----------------------7----------7-----4----7-----------7------------------|
E |--7--------5-----7------------4-5----7--------------------------4-5---------|
B |--------7-----7-----7----------------------5----7--5--7---------------------|
F#|-----5----------------------------------------------------------------------|

G |---------------------------------------------------------------------------|
D |---------------------------------------------------------------------------|
A |--7-----4-----5-----------5------------7-----4-----7-----------7-----------|
E |-----5-----------------------------4-5----7--------------------------------|
B |-----------7-----7-----7------------------------5-----7--5--7--------------|
F#|--------------------5------------------------------------------------------|            
Submit corrections

↑ Back to top | Tablatures and chords for acoustic guitar and electric guitar, ukulele, drums are parodies/interpretations of the original songs. You may use it for private study, scholarship, research or language learning purposes only