Home » V » Vogues »

Vogues - Autumn Bass

Artists:  A B C D E F G H I J K L M N O P Q R S T U V W X Y Z # 

Autumn Bass

(ver. 1) Click to play this song!
Vogues
uning: EADG

G|3---3---3---3---3---3---3---3---3---3---3---3---1---------------|
D|----------------------------------------------------3---1---0---|
A|----------------------------------------------------------------|
E|----------------------------------------------------------------|

G|----------------------------------------------------------------|
D|----------------------------------------------------0---1---3---|
A|1---1---1---1---1---1---1---1---1---1---1---1---3---------------|
E|----------------------------------------------------------------|

0:09

G|----------------------------------------------------------------|
D|--------------------------------0-----------0---0---------------|
A|1-----------1---1-----------------------------------------------|
E|----------------------------------------------------------------|

G|----------------------------------------------------------------|
D|1-----------1---3-----------3-----------------------0---1---3---|
A|--------------------------------1-----------1---3---------------|
E|----------------------------------------------------------------|

G|----------------------------------------------------------------|
D|--------------------------------0-----------0---0-----------0---|
A|1-----------1---1-----------1-----------------------------------|
E|----------------------------------------------------------------|

G|----------------------------------------------------------------|
D|1-----------1---3-----------3-----------------------0---1---3---|
A|--------------------------------1-----------1---3---------------|
E|----------------------------------------------------------------|

0:25

G|----------------------------------------------------------------|
D|--------------------------------5-----------5---5-------3-------|
A|5-----------5---5-----------5-----------------------------------|
E|----------------------------------------------------------------|

G|----------------------------------------------------------------|
D|1-----------1---1---------------1-----------1---1-------1-------|
A|----------------------------1-----------------------------------|
E|----------------------------------------------------------------|

G|--------------------------------|
D|1-----------1---1-------1-------|
A|--------------------------------|
E|--------------------------------|

0:35

G|----------------------------------------------------------------|
D|3-----------3---3---0-------3---1-----------1-----------0---1---|
A|------------------------1-----------------------1---3-----------|
E|----------------------------------------------------------------|

G|----------------------------------------------------------------|
D|3-----------3---3-----------3-----------------------0---1---3---|
A|--------------------------------1-----------1---3---------------|
E|----------------------------------------------------------------|

G|----------------------------------------------------------------|
D|----------------------------0---1-----------1---1-------0---1---|
A|1-----------1---1-----------------------------------------------|
E|----------------------------------------------------------------|

G|--------------------------------|
D|3-----------3---3---------------|
A|--------------------------------|
E|--------------------------------|

G|3---3---3---3---3---3---3---3---3---3---3---3---1---------------|
D|----------------------------------------------------3---1---0---|
A|----------------------------------------------------------------|
E|----------------------------------------------------------------|

G|----------------------------------------------------------------|
D|----------------------------------------------------0---1---3---|
A|1---1---1---1---1---1---1---1---1---1---1---1---3---------------|
E|----------------------------------------------------------------|

0:57

G|----------------------------------------------------------------|
D|----------------------------3---0-----------0---0-----------0---|
A|1-----------1---1-----------------------------------------------|
E|----------------------------------------------------------------|

G|----------------------------------------------------------------|
D|1-----------1---3-----------3-----------------------0---1---3---|
A|--------------------------------1-----------1---3---------------|
E|----------------------------------------------------------------|

G|----------------------------------------------------------------|
D|--------------------------------0-----------0---0-----------0---|
A|1-----------1---1-----------1-----------------------------------|
E|----------------------------------------------------------------|

G|----------------------------------------------------------------|
D|1-----------1---3-----------3-----------------------0---1---3---|
A|--------------------------------1-----------1---3---------------|
E|----------------------------------------------------------------|

1:13

G|----------------------------------------------------------------|
D|--------------------------------5-----------5---5-------3-------|
A|5-----------5---5-----------5-----------------------------------|
E|----------------------------------------------------------------|

G|----------------------------------------------------------------|
D|1-----------1---1---------------1-----------1---1-------1-------|
A|----------------------------1-----------------------------------|
E|----------------------------------------------------------------|

G|--------------------------------|
D|1-----------1---1-------1-------|
A|--------------------------------|
E|--------------------------------|

1:23

G|----------------------------------------------------------------|
D|3-----------3---3-------0-------1-----------1-----------0---1---|
A|----------------------------1-------------------1---3-----------|
E|----------------------------------------------------------------|

G|----------------------------------------------------------------|
D|3-----------3---3-----------3-----------------------0---1---3---|
A|--------------------------------1-----------1---3---------------|
E|----------------------------------------------------------------|

G|----------------------------------------------------------------|
D|----------------------------0---1-----------1-----------0---1---|
A|1-----------1---1-------------------------------1---3-----------|
E|----------------------------------------------------------------|

G|----------------------------------------------------------------|
D|3-----------3---3-----------3-------------------------------0---|
A|--------------------------------1-----------1---1---1---3-------|
E|----------------------------------------------------------------|

1:39

G|----------------------------0---1-----------1---1-----1-1---2---|
D|1-----------1---1-------3---------------------------------------|
A|----------------------------------------------------------------|
E|----------------------------------------------------------------|

G|3-----------3---1-----------------------------------------------|
D|--------------------3---1---0-------------------------------0---|
A|--------------------------------1-----------1---1---1---3-------|
E|----------------------------------------------------------------|

G|----------------------------0---1-----------1---1---------------|
D|1-----------1---1-------3---------------------------------------|
A|----------------------------------------------------------------|
E|----------------------------------------------------------------|

G|----------------------------------------------------------------|
D|----0-------1-------------------3-----------3-------1-----------|
A|3-------------------------------------------------------3---3---|
E|----------------------------------------------------------------|

G|--------------------------------|
D|--------------------------------|
A|------------------------0-------|
E|1-----------1---3---------------|

1:58

G|----------------------------------------------------------------|
D|--------------------------------1-----------1-----------0---1---|
A|1-----------1---1-------------------------------1---3-----------|
E|----------------------------------------------------------------|

G|----------------------------------------------------------------|
D|3-----------3---3-----------------------------------0-------3---|
A|--------------------------------1-----------1---3---------------|
E|----------------------------------------------------------------|

G|----------------------------------------------------------------|
D|--------------------------------1-----------1-----------0---1---|
A|1-----------1---1-------------------------------1---3-----------|
E|----------------------------------------------------------------|

G|----------------------------------------------------------------|
D|3-----------3---3-----------3-----------------------0---1---3---|
A|--------------------------------1-----------1---3---------------|
E|----------------------------------------------------------------|

2:13

G|----------------------------------------------------------------|
D|----------------------------0---1-----------1-----------0---1---|
A|1-----------1---1-------------------------------1---3-----------|
E|----------------------------------------------------------------|

G|--------------------------------3---1---------------------------|
D|3-----------3---3---------------------------3-------3---1---0---|
A|----------------------------------------------------------------|
E|----------------------------------------------------------------|

G|----------------------------------------------------------------|
D|----------------------------0---1-----------1-----------0---1---|
A|1-----------1---1-------------------------------1---3-----------|
E|----------------------------------------------------------------|

G|--------------------|
D|3-----------3---3---|
A|--------------------|
E|--------------------|            
Submit corrections

↑ Back to top | Tablatures and chords for acoustic guitar and electric guitar, ukulele, drums are parodies/interpretations of the original songs. You may use it for private study, scholarship, research or language learning purposes only