» » »

Vitamin C - Graduation Song Tabs

Artists:  A B C D E F G H I J K L M N O P Q R S T U V W X Y Z # 

Graduation Song Tabs

(ver. 2) Click to play this song!
Vitamin C
 Rating:
4/5 (4 votes)

 Graduation Song lessons Tabs too difficult? Try these video lessons and learn fast
 
                INTRO:  (slow) listen to song to keep the beat.
E-0-3-1-0---|--0-------|---------|--------
B--------3-1|---3-1-0--|-0-1-----|1-1-0---
G-----------|---------2|-----0-2-|--------
D-----------|----------|---------|--------
A-----------|----------|---------|--------
E-----------|----------|---------|--------

CHORUS:
as we go on,we remember, all the times we, had together.
E-0-3-3--|---0-0---|-------|----------------
B------3-|-1-----0-|--1-1--|----1-1-0-------
G--------|---------|2-----0|--2-------------
D--------|---------|-------|----------------
A--------|---------|-------|-----------
E--------|---------|-------|-----------

~thanks~
            
Submit corrections


        Graduation Song lessons Hard to play? Try these video lessons and learn fast Graduation Song lessons
        
↑ Back to top | Tablatures and chords for acoustic guitar and electric guitar, ukulele, drums are parodies/interpretations of the original songs. You may use it for private study, scholarship, research or language learning purposes only