» » »

Vital Remains - Savior To Nonefailure To All Tabs

Artists:  A B C D E F G H I J K L M N O P Q R S T U V W X Y Z # 

Savior To Nonefailure To All Tabs

(ver. 1) Click to play this song!
Vital Remains
 Rating:
4.2/5 (5 votes)


 Savior To Nonefailure To All lessons Tabs too difficult? Try these video lessons and learn fast
 
                Tune to Eb
Intro
Riff A.1:
Eb|----------------------------Gtr.1-|
Bb|----------------------------------|
Gb|----------------------------------|
Db|----------------------------------|
Ab|-6-5-3-5-4-2-4-3-6-5-3-5-4-2-4~---|
Eb|-4-3-1-3-2-0-2-1-4-3-1-3-2-0-2~---|

Play Riff A.1 4 times, on the 3rd time Gtr.2 comes in with
riff A.2

Riff A.2:
Eb|------------------------------------------------------|continued>
Bb|------------------------------------------------------|
Gb|------------------------------------------------------|
Db|-5-4-2-4-3-1-3-2-5-4-2-4-3-1-(3)-66665555333355554444-|
Ab|------------------------------------------------------|
Eb|------------------------------------------------------|

Db|222244443333666655553333555544442222(4)--|
Ab|-----------------------------------------|
Eb|-----------------------------------------|

Riff B:
Eb|----------------------------------------------------|continued>
Bb|----------------------------------------------------|
Gb|----------------------------------------------------|
Db|-3---3---6---6---5---5---4---4-3/4-3---3---6---6----|
Ab|-1---1---4---4---3---3---2---2-1/2-1---1---4---4----|
Eb|--000-000-000-000-000-000-000-------000-000-000-000-|
     ... ... ... ... ... ... ...       ... ... ... ...
Db|5---5---(4)-|
Ab|3---3---(2)-|
Eb|-000-000----|
    ... ...
Play Riff B twice
Play Riff A.1 4 times
Gtr.2 play Riff twice starting at Gtr.1’s 3rd time
Play Riff B twice
Riff C:
Eb|-------------------------------|
Bb|-------------------------------|
Gb|-------------------------------|
Db|-----------65-----------54-----|
Ab|-6-5-3-5-4-43-6-5-3-5-4-32-----|
Eb|-4-3-1-3-2-----4-3-1-3-2-------|
      * * * *       * * * *
Riff C slightly palm muted

Play Riff C 4 times

Riff D:
Eb|----------------------------------------------------|
Bb|----------------------------------------------------|
Gb|----------------------------------------------------|
Db|----------------------------------------------------|
Ab|-4-3-333333-4-3--------4-3-3333----7777666644445555-|
Eb|-2-1--------2-1-444444-2-1-----4444-----------------|
    * *        * *        * *
Play Riff D 6 times

Riff E:
Eb|------------------------------------|
Bb|------------------------------------|
Gb|------------------------------------|
Db|------------------------------------|
Ab|-------3------3-4------3------5-4-3-|
Eb|-00000010000001-200000010000003-2-1-|
    ...... ......   ...... ......
Play Riff E 4 times
Play Riff D 4 times
Play Riff E 4 times

Riff F:
Eb|--------------------------------------------------|continued>
Bb|--------------------------------------------------|
Gb|--------------------------------------------------|
Db|--------------------------------------------------|
Ab|-------3-----------3-4-----------3-----------3-4--|
Eb|-0000001-----0000001-2-----0000001-----0000001-2--|
    ......      ......        ......      ......
Eb|--------------------------------------------------|
Bb|--------------------------------------------------|
Gb|--------------------------------------------------|
Db|--------------------------------------------------|
Ab|----------3-----------3-4-----------3-----------4-|
Eb|----0000001-----0000001-2-----0000001-----0000002-|
       ......      ......        ......      ......
Eb|------------------------------------------------|
Bb|------------------------------------------------|
Gb|------------------------------------------------|
Db|------------------------------------------------|
Ab|----------3-----------4-----------3-----------4-|
Eb|----0000001-----0000002-----0000001-----0000002-|
       ......      ......      ......      ......
Eb|------------------------------------------------|
Bb|------------------------------------------------|
Gb|------------------------------------------------|
Db|------------------------------------------------|
Ab|----------3-----------4-----------3-----------4-|
Eb|----0000001-----0000002-----0000001-----0000002-|
       ......      ......      ......      ......
Play Riff F
Riff G:
Eb|--------------------------------------------|
Bb|--------------------------------------------|
Gb|--------------------------------------------|
Db|--------------------------------------------|
Ab|-------3~~~~------4~~~~------3~~~~5~~4~~3~~-|
Eb|-0000001~~~~0000002~~~~0000001~~~~3~~2~~1~~-|
    ......     ......     ......
Play Riff G 4 times
Riff H:
Eb|-----------------------------------------------|
Bb|-----------------------------------------------|
Gb|-----------------------------------------------|
Db|-----------------------------------------43----|
Ab|-------------------3-2-------------------21----|
Eb|-0000004444443333331-0-000000444444333333------|
    ..................* * ..................
Play Riff H 4 times
Play Riff C 4 times
Play Riff B twice
Play Riff C 4 times
Play Riff B twice
Play Riff D 4 times
Play Riff E 4 times
Play Riff D 4 times
Play Riff E 4 times
Play Riff H 4 times
Play Riff A.1 4 times
Gtr.2 plays Riff A.2 twice starting at Gtr.1’s 3rd time
            
Submit corrections



        Savior To Nonefailure To All lessons Hard to play? Try these video lessons and learn fast Savior To Nonefailure To All lessons
        
↑ Back to top | Tablatures and chords for acoustic guitar and electric guitar, ukulele, drums are parodies/interpretations of the original songs. You may use it for private study, scholarship, research or language learning purposes only