Home » V » Virginia Jetzt »

Virginia Jetzt - Dreifach Schön Chords

Artists:  A B C D E F G H I J K L M N O P Q R S T U V W X Y Z # 

Dreifach Schön Chords

(ver. 1) Click to play this song!
Virginia Jetzt
[Intro]
    G                                      Gmaj7    Cmaj7        Am7
e|------------|-----------|-----------|-----------|-0--0---------0--0--|
B|------------|-----------|-----------|-----------|-0--0---------1--1--|
G|------------|-----------|-----------|-0---------|-0--0---------0--0--|
D|------0---0-|-----0---0-|-----0---0-|-0--4------|-2--2---------2--2--|
A|--2-2-------|-2-2-------|-2-2-------|-2--2------|-3--3---------0--0--|
E|--3-3-------|-3-3-------|-3-3-------|-3--3------|--------------------|
 
    G                                      Gmaj7    Cmaj7
e|------------|-----------|-----------|-----------|-0--0--|
B|------------|-----------|-----------|-----------|-0--0--|
G|------------|-----------|-----------|-0---------|-0--0--|
D|------0---0-|-----0---0-|-----0---0-|-0--4------|-2--2--|
A|--2-2-------|-2-2-------|-2-2-------|-2--2------|-3--3--|
E|--3-3-------|-3-3-------|-3-3-------|-3--3------|-------|
 
[Verse 1]
(Cmaj7)
  Du hast Sterne im Gesicht
Am7                  | G | Gadd11 | G | G Gmaj7 |
 Warum lachst du und ich nicht
Cmaj7
 Wo wir sind, da ist stets Licht
Am7                            | G | Gadd11 | G | G Gmaj7 |
 Wo du bleibst, da bleib auch ich
Cmaj7
 Komm ich kitzel dich so lang
Am7                       G Gadd11          G   Gmaj7
 Bis du umfällst irgendwann,  und ich dich fang
Cmaj7
 Halt dich fest, lass nicht mehr los
Am7
 Schließ die Augen bloß
 
[Pre-Chorus]
         Em             D         C
Und ich hoff, dass wir uns immer gut verstehen
         Em         D               C
Und ich weiß, ohne dich würds auch weitergehen
 
[Chorus]
                    G              G7
Doch mit dir ist es dreifach schön
   G       G/A   G/B C                Dsus4
In allem etwas von   dir zu sehen, na hah
D               G              G7
Macht die Dinge dreifach schön
   G       G/A   G/B C                Dsus4
In allem etwas von   dir zu sehen, na hah
 
[Instrumental]
    G                                      Gmaj7    Cmaj7
e|------------|-----------|-----------|-----------|-0--0--|
B|------------|-----------|-----------|-----------|-0--0--|
G|------------|-----------|-----------|-0---------|-0--0--|
D|------0---0-|-----0---0-|-----0---0-|-0--4------|-2--2--|
A|--2-2-------|-2-2-------|-2-2-------|-2--2------|-3--3--|
E|--3-3-------|-3-3-------|-3-3-------|-3--3------|-------|
 
(Cmaj7)
  Was sich gleicht macht uns verrückt
Am7                   | G | Gadd11 | G | G Gmaj7 |
 So bewegt sich nun dein Blick
Cmaj7
 Hält mich fest und zeigt wies ist
Am7                       | G | Gadd11 | G | G Gmaj7 |
 Wenn man Ort und Zeit vergisst
Cmaj7
 Rück noch näher ran und schau
Am7                        G  Gadd11     G     Gmaj7
 Wie ich uns Luftschlösser bau aus einem Traum
Cmaj7
 Eines mit Meergeruch und Strand
Am7
 Halt nur meine Hand
 
[Pre-Chorus]
         Em             D         C
Und ich hoff, dass wir uns immer gut verstehen
         Em         D               C
Und ich weiß, ohne dich würds auch weitergehen
 
[Chorus]
                    G              G7
Doch mit dir ist es dreifach schön
   G       G/A   G/B C                Dsus4
In allem etwas von   dir zu sehen, na hah
D               G              G7
Macht die Dinge dreifach schön
   G       G/A   G/B C                Dsus4
In allem etwas von   dir zu sehen, na hah
 
[Pre-Chorus]
         Em             D         C
Und ich hoff, dass wir uns immer gut verstehen
         Em         D               C
Und ich weiß, ohne dich würds auch weitergehen
 
[Chorus]
                    G              G7
Doch mit dir ist es dreifach schön
   G       G/A   G/B C                Dsus4
In allem etwas von   dir zu sehen, na hah
D               G              G7
Macht die Dinge dreifach schön
    G        G/A G/B C              Dsus4
Die Welt kann morgen untergehen, na hah
        D               G
Mit dir ist es dreifach schön
 
[Outro]
(G) D/F# Em C
G D/F# Em C
(repeat to fade...)
            
Submit corrections

↑ Back to top | Tablatures and chords for acoustic guitar and electric guitar, ukulele, drums are parodies/interpretations of the original songs. You may use it for private study, scholarship, research or language learning purposes only