» » »

Violent Soho - Muscle Junkie Tabs

Artists:  A B C D E F G H I J K L M N O P Q R S T U V W X Y Z # 

Muscle Junkie Tabs

(ver. 1) Click to play this song!
Violent Soho
 Rating:
3.4/5 (5 votes)

 Muscle Junkie lessons Tabs too difficult? Try these video lessons and learn fast
 
                ----------------------------------------------------------------------------
----------------------------------------------------------------------------

Tuning: Drop D

Guitar I  - Luke Boerdam
Guitar II - James Tidswell

Intro (bass only, then guitar II comes in)
Guitar I plays nothing 'til chorus
Guitar II x2
|---------------------|
|---------------------|
|---------------------|
|-0000-9999-4244-5555-|
|-0000-9999-4244-5555-|
|-0000-9999-4244-5555-|
PM···· ···· ···· ····

Chorus 
Both Guitars
|-----------------------------------------|
|-----------------------------------------|
|-----------------------------------------|
|-0000-9999-4244-5555-0000-9999-4244-5424-|
|-0000-9999-4244-5555-0000-9999-4244-5424-|
|-0000-9999-4244-5555-0000-9999-4244-5424-|

|------------------------------------------|
|------------------------------------------|
|------------------------------------------|
|-0000-9999-4244-5555-0000-9999-4244-55/77-|
|-0000-9999-4244-5555-0000-9999-4244-55/77-|
|-0000-9999-4244-5555-0000-9999-4244-55/77-|

Verse
Only bass then Guitar II comes in (again)
Guitar II x2
|---------------------|
|---------------------|
|---------------------|
|-0000-9999-4244-5555-|
|-0000-9999-4244-5555-|
|-0000-9999-4244-5555-|
PM···· ···· ···· ····

Chorus x2 
Guitar I 
|------------------------------------------|
|------------------------------------------|
|------------------------------------------|
|-0000-9999-4244-5555-0000-9999-4244-55/77-|
|-0000-9999-4244-5555-0000-9999-4244-55/77-|
|-0000-9999-4244-5555-0000-9999-4244-55/77-|
Guitar II                                  
|----------------------------------------------------------|
|----------------------------------------------------------|
|-9-11-12-11-9-11br-----------9-11-12-11-9-11br------------|
|-------------------4244-5555-------------------4244-55/77-|
|-------------------4244-5555-------------------4244-55/77-|
|-------------------4244-5555-------------------4244-55/77-|

Break x2
Guitar I
|-------------------------------------|
|-------------------------------------|
|-------------------------------------|
|-55555555-77777777-99999999-44444444-|
|-55555555-77777777-99999999-44444444-|
|-55555555-77777777-99999999-44444444-|
Guitar II rest

then...
Both Guitars
|-------------------|
|-------------------|
|-------------------|
|-55555555-77777777-|
|-55555555-77777777-|
|-55555555-77777777-|

Bass break

Chorus
Both Guitars
|------------------------------------------|
|------------------------------------------|
|------------------------------------------|
|-0000-9999-4244-5555-0000-9999-4244-55/77-|
|-0000-9999-4244-5555-0000-9999-4244-55/77-|
|-0000-9999-4244-5555-0000-9999-4244-55/77-|

Guitar I
|------------------------------------------|
|------------------------------------------|
|------------------------------------------|
|-0000-9999-4244-5555-0000-9999-4244-55/77-|
|-0000-9999-4244-5555-0000-9999-4244-55/77-|
|-0000-9999-4244-5555-0000-9999-4244-55/77-| x2
Guitar II                                  
|----------------------------------------------------------|
|----------------------------------------------------------|
|-9-11-12-11-9-11br-----------9-11-12-11-9-11br------------|
|-------------------4244-5555-------------------4244-55/77-|
|-------------------4244-5555-------------------4244-55/77-|
|-------------------4244-5555-------------------4244-55/77-| x2

Both Guitars
|-----------------------------------------|
|-----------------------------------------|
|-----------------------------------------|
|-0000-9999-4244-5555-0000-9999-4244-5424-|
|-0000-9999-4244-5555-0000-9999-4244-5424-|
|-0000-9999-4244-5555-0000-9999-4244-5424-|

|------------------------------------------|
|------------------------------------------|
|------------------------------------------|
|-0000-9999-4244-5555-0000-9999-4244-55/77-|
|-0000-9999-4244-5555-0000-9999-4244-55/77-|
|-0000-9999-4244-5555-0000-9999-4244-55/77-|

End note
Both Guitars
|----|
|----|
|----|
|-0~-|
|-0~-|
|-0~-|

*********************************

| PM  Palm Mute
| ~   Let Ring
| /   Slide
| br  Bend Release

*********************************

Have Fun !!

Luke Boerdam is gorgeous and Henery rules...
            
Submit corrections


        Muscle Junkie lessons Hard to play? Try these video lessons and learn fast Muscle Junkie lessons
        
↑ Back to top | Tablatures and chords for acoustic guitar and electric guitar, ukulele, drums are parodies/interpretations of the original songs. You may use it for private study, scholarship, research or language learning purposes only