» » »

Violent Delight - Nothing To Loose Tabs

Artists:  A B C D E F G H I J K L M N O P Q R S T U V W X Y Z # 

Nothing To Loose Tabs

(ver. 1) Click to play this song!
Violent Delight
 Rating:
4/5 (4 votes)
                Tuning:D A D G B E

Intro/verse: Up and down strokes
D----------------------------------------------
A------5-5-5-5-/-7-7-7-7-/-4-4-4-4-4-4-4-4-----
D------7-7-7-7-/-9-9-9-9-/-6-6-6-6-6-6-6-6-----
G------7-7-7-7-/-9-9-9-9-/-6-6-6-6-6-6-6-6-----
B----------------------------------------------
E----------------------------------------------

chorus:
D----------7-7-7-7--9-9-9-9---------------------
A----------7-7-7-7--9-9-9-9---------------------
D----------7-7-7-7--9-9-9-9---------------------
G-----------------------------------------------
B-----------------------------------------------
E-----------------------------------------------

bridge 1:
D-----------5-5-5-5-5-------------------------------
A-----------5-5-5-5-5-5-5-5-5-5---------------------
D-----------5-5-5-5-5-7-7-7-7-7---------------------
G---------------------7-7-7-7-7---------------------
B---------------------------------------------------
E---------------------------------------------------

After the first bridge there is a bass bridge

bridge 2:
D----------5-5-5-5-x-5-5-5-5-5----3/-----------
A----------5-5-5-5-x-5-5-5-5-5----3/-----------
D----------5-5-5-5-x-5-5-5-5-5----3/-----------
G----------------------------------------------
B----------------------------------------------
E----------------------------------------------

D----------5-5-5-5-x-5-5-5-5-5----3/-----------
A----------5-5-5-5-x-5-5-5-5-5----3/-----------
D----------5-5-5-5-x-5-5-5-5-5----3/-----------
G----------------------------------------------
B----------------------------------------------
E----------------------------------------------
PM====================================|

Song Order:
Intro
Verse
Chorus
Verse
Chorus
Bridge 1
bass bridge (dont play)
chorus
bridge 2
            
Submit corrections

↑ Back to top | Tablatures and chords for acoustic guitar and electric guitar, ukulele, drums are parodies/interpretations of the original songs. You may use it for private study, scholarship, research or language learning purposes only