Home » V » Vince Guaraldi »

Vince Guaraldi - Linus And Lucy Tabs

Artists:  A B C D E F G H I J K L M N O P Q R S T U V W X Y Z # 

Linus And Lucy Tabs

(ver. 2) Click to play this song!
Vince Guaraldi
[Intro]
e|--------------------------------------------------------------------------------|
B|--------------------------------------------------------------------------------|
G|--------------------------------------------------------------------------------|
D|--------0--------0----------------------------0--------0------------------------|
A|-----0--------0--------0-h2-----0-h2-------0--------0--------0-h2-----0-h2------|
D|--0--------0--------0--------0----------0--------0--------0--------0------------|

[Verse]
[Part A]
e|-----0--2-----2--0--------0-----------------------0--2-----2---------------------|
B|--3-----------------3--------------3-----------3-----------3---------------------|
G|---------------------------------------------------------------------------------|
D|--------0--------0--------------------------0--------0--------0------------------|
A|-----0--------0--------0-----0-h2-----0-h2--------0--------0--------0-h2----0-h2-|
D|--0--------0--------0-----0--------0-----------0--------0--------0--------0------|

e|-----0--2-----2--0--------0--------------------|
B|--3-----------------3--------------3-----------|
G|-----------------------------------------------|
D|--------0--------0--------------------------0--|
A|-----0--------0--------0-----0-h2-----0-h2-----|
D|--0--------0--------0-----0--------0-----------|

[Part B]
e|-----------0--0-----------------------------------0--0-------------------------||
B|--3--------------------------------------3-------------------------------------||
G|--------------2-----------------------------------2--2-------------------------||
D|--------3-----------3--------0--------0--------0--------0----------------------||Repeat A & B
A|-----3-----------3--------3--------3--------0--------0--------0-h2-----0-h2----||
D|--3-----------3--------3--------3--------0--------0--------0--------0----------||

[Chorus]
e|-----3--3--3--5--10--10--10--10--10--10--10--10--10--------||   |-------|
B|--3--3--3--3--3--10--12--12--10--12--12--10--12--12--10----||   |-------|
G|-----------------------------------------------------------||   |-------|
D|-----------------------------------------------------------||x3 |--0----|
A|-----------------------------------------------------------||   |-------|
D|-----5--------5--------------------------------------------||   |-------|

e|----------------------------------------|
B|----------------------------------------|
G|----------------------------------------|
D|--------0--------0----------------------|
A|-----0--------0--------0-h2-----0-h2----|
D|--0--------0--------0--------0----------|

[Verse]
[Part A]
e|-----0--2-----2--0--------0-----------------------0--2-----2---------------------|
B|--3-----------------3--------------3-----------3-----------3---------------------|
G|---------------------------------------------------------------------------------|
D|--------0--------0--------------------------0--------0--------0------------------|
A|-----0--------0--------0-----0-h2-----0-h2--------0--------0--------0-h2----0-h2-|
D|--0--------0--------0-----0--------0-----------0--------0--------0--------0------|

e|-----0--2-----2--0--------0--------------------|
B|--3-----------------3--------------3-----------|
G|-----------------------------------------------|
D|--------0--------0--------------------------0--|
A|-----0--------0--------0-----0-h2-----0-h2-----|
D|--0--------0--------0-----0--------0-----------|

[Part B]
e|-----------0--0-----------------------------------0--0-------------------------||    |-----|
B|--3--------------------------------------3-------------------------------------||    |-----|
G|--------------2-----------------------------------2--2-------------------------||    |-----|
D|--------3-----------3--------0--------0--------0--------0----------------------||x2  |-----|
A|-----3-----------3--------3--------3--------0--------0--------0-h2-----0-h2----||    |-----|
D|--3-----------3--------3--------3--------0--------0--------0--------0----------||    |--0--|

[Jazz break 1] 1:07 - 1:32

e|--------------------------------------------------------------------------
B|--------------------------------------------------------------------------
G|------[Looking for collaborators on this section]---------------------------
D|---------------------------------------------------------------------------
A|-----------------------------------------------------------------------------
D|----------------------------------------------------------------------------

[Part A]
e|-----0--2-----2--0--------0-----------------------0--2-----2---------------------|
B|--3-----------------3--------------3-----------3-----------3---------------------|
G|---------------------------------------------------------------------------------|
D|--------0--------0--------------------------0--------0--------0------------------|
A|-----0--------0--------0-----0-h2-----0-h2--------0--------0--------0-h2----0-h2-|
D|--0--------0--------0-----0--------0-----------0--------0--------0--------0------|

e|-----0--2-----2--0--------0--------------------|
B|--3-----------------3--------------3-----------|
G|-----------------------------------------------|
D|--------0--------0--------------------------0--|
A|-----0--------0--------0-----0-h2-----0-h2-----|
D|--0--------0--------0-----0--------0-----------|

[Part B]
e|-----------0--0-----------------------------------0--0-------------------------||    |-----|
B|--3--------------------------------------3-------------------------------------||    |-----|
G|--------------2-----------------------------------2--2-------------------------||    |-----|
D|--------3-----------3--------0--------0--------0--------0----------------------||x2  |-----|
A|-----3-----------3--------3--------3--------0--------0--------0-h2-----0-h2----||    |-----|
D|--3-----------3--------3--------3--------0--------0--------0--------0----------||    |--0--|

[Jazz break 2] 1:53 -2:18
e|-------------------------------------------------------------------------
B|--------------------------------------------------------------------------
G|------[Looking for collaborators on this section]----------------------------
D|---------------------------------------------------------------------------
A|-----------------------------------------------------------------------------
D|----------------------------------------------------------------------------

[Part A]
e|-----0--2-----2--0--------0-----------------------0--2-----2---------------------|
B|--3-----------------3--------------3-----------3-----------3---------------------|
G|---------------------------------------------------------------------------------|
D|--------0--------0--------------------------0--------0--------0------------------|
A|-----0--------0--------0-----0-h2-----0-h2--------0--------0--------0-h2----0-h2-|
D|--0--------0--------0-----0--------0-----------0--------0--------0--------0------|


e|-----0--2-----2--0--------0--------------------|
B|--3-----------------3--------------3-----------|
G|-----------------------------------------------|
D|--------0--------0--------------------------0--|
A|-----0--------0--------0-----0-h2-----0-h2-----|
D|--0--------0--------0-----0--------0-----------|

[Part B]
e|-----------0--0-----------------------------------0--0-------------------------|
B|--3--------------------------------------3-------------------------------------|
G|--------------2-----------------------------------2--2-------------------------|
D|--------3-----------3--------0--------0--------0--------0----------------------|
A|-----3-----------3--------3--------3--------0--------0--------0-h2-----0-h2----|
D|--3-----------3--------3--------3--------0--------0--------0--------0----------|

e|-------------------------------------------------------------------------------|
B|-------------------------------------------------------------------------------|
G|-------------------------------------------------------------------------------|
D|--------0--------0----------------------------0--------0-----------------------|
A|-----0--------0--------0-h2-----0-h2-------0--------0--------0-h2-----0-h2-----|
D|--0--------0--------0--------0----------0--------0--------0--------0-----------|

e|-------------------------------------------------------------------------------|
B|-------------------------------------------------------------------------------|
G|-------------------------------------------------------------------------------|
D|--------0--------0----------------------------0--------0-----------------------|
A|-----0--------0--------0-h2-----0-h2-------0--------0--------0-h2-----0-h2-----|
D|--0--------0--------0--------0----------0--------0--------0--------0-----------|

e|--------------0--2-----0--3--------2--0-------12-------10------------------------|
B|-----------3-----3--3-----3--3-----3-----3----10---------------------------------|
G|--------------2--------2-----2--------2----------------11------------------------|
D|--0--2--4--4--------4-----------4--------4----------0--------0-------------------|
A|-----0--5----------------------------------------0--------0--------0-h2-----0-h2-|
D|--4-------------------------------------------0--------0--------0--------0-------|

e|--12-------10------------------------||   |----||
B|--10---------------------------------||   |----||
G|-----------11------------------------||   |----||
D|--------0--------0-------------------||x2 |----||
A|-----0--------0--------0-h2-----0-h2-||   |----||
D|--0--------0--------0--------0-------||   |--0-||            
Submit corrections

↑ Back to top | Tablatures and chords for acoustic guitar and electric guitar, ukulele, drums are parodies/interpretations of the original songs. You may use it for private study, scholarship, research or language learning purposes only