Home » V » Villagers »

Villagers - Nothing Arrived Tabs

Artists:  A B C D E F G H I J K L M N O P Q R S T U V W X Y Z # 

Nothing Arrived Tabs

(ver. 1) Click to play this song!
Villagers
Tuning: EADGBe
Capo on 7th fret. All relative to capo.

SECTION ORDER:

INTRO (A+B/) - 2xA - B+B/ - 2xC - 2xB - A+A/ - C+C/ - 8xD

***** INTRO *****

e|--------------------------|--------------------------|--------------------------|--------------------------|
B|---1----------------1-----|---1----------------0-----|---0h1--------------1-----|---1----------------0-----|
G|-------0--------0-------0-|-------0--------0-------0-|-------2--------2-------2-|-------2--------2-------2-|
D|---2-----2----2-------2---|---2-----2----3-------3---|---2-----2----2-------2---|---2-----2----3-------3---|
A|-3---3------3-----3-------|-3---3------5-----5-------|-0---0------0-----0-------|-0---0--------------------|
E|--------------------------|--------------------------|--------------------------|------------1-----1-------|

e|----------------0---------|--------------------------|--------------------------|--------------------------|
B|---0h1------1h3-----3-----|---1----------------0-----|---0h1--------------------|--------------------------|
G|-------0----------------0-|-------0--------0-------0-|-------2----------2-------|--------------------------|
D|---2-----2----2-------2---|---2-----2----3-------3---|---2-----2------2-------2-|----2-----2---------------|
A|-3---3------3-----3-------|-3---3------5-----5-------|-0---0-------0-------0----|-0-----0--------0-----0---|
E|--------------------------|--------------------------|--------------------------|-------------1-----1------|

***** SECTION A *****

e|--------------------------|--------------------------|--------------------------|--------------------------|
B|---1----------------1-----|---1----------------0-----|---0h1--------------1-----|---1----------------0-----|
G|-------0--------0-------0-|-------0--------0-------0-|-------2--------2-------2-|-------2--------2-------2-|
D|---2-----2----2-------2---|---2-----2----3-------3---|---2-----2----2-------2---|---2-----2----3-------3---|
A|-3---3------3-----3-------|-3---3------5-----5-------|-0---0------0-----0-------|-0---0--------------------|
E|--------------------------|--------------------------|--------------------------|------------1-----1-------|

***** SECTION B *****

e|----------------0---------|--------------------------|--------------------------|--------------------------|
B|---0h1------1h3-----3-----|---1----------------0-----|---0h1--------------1-----|---1----------------0-----|
G|-------0----------------0-|-------0--------0-------0-|-------2--------2-------2-|-------2--------2-------2-|
D|---2-----2----2-------2---|---2-----2----3-------3---|---2-----2----2-------2---|---2-----2----3-------3---|
A|-3---3------3-----3-------|-3---3------5-----5-------|-0---0------0-----0-------|-0---0--------------------|
E|--------------------------|--------------------------|--------------------------|------------1-----1-------|

***** SECTION C *****

e|--------------------------|--------------------------|--------------------------|--------------------------|
B|--------------------------|--------------------------|--------------------------|--------------------------|
G|--------------------------|--------------------------|--------------------------|--------------------------|
D|----2-----2-----2-----2---|----2-----2-----3-----3---|----2-----2-----2-----2---|----2-----2---------------|
A|-3-----3-----3-----3------|-3-----3-----5-----5------|-0-----0-----0-----0------|-0-----0--------0-----0---|
E|--------------------------|--------------------------|--------------------------|-------------1-----1------|

***** SECTION D *****

e|--------------------------|--------------------------|--------------------------|--------------------------|
B|--------------------------|--------------------------|---0h1------1-------3-----|---0h1------1-------1-----|
G|---2--------2-------2-----|---2----------------2-----|-------2---------2------0-|-------0--------0-------0-|
D|-------3--------3-------3-|-------3--------3-------3-|---2-----2----2-------0---|---0h2---2----2-------2---|
A|---3-----3----3-------3---|---3-----3----0-------0---|-0---0------0-----2-------|-3---3------3-----3-------|
E|-1---1------1-----1-------|-1---1------3-----3-------|--------------------------|--------------------------|


***** ALTERNATIVES *****

2 last sections differ from the originals.

A/:

e|--------------------------|--------------------------|--------------------------|--------------------------|
B|---1----------------1-----|---1----------------0-----|---0h1--------------------|--------------------------|
G|-------0--------0-------0-|-------0--------0-------0-|-------2----------2-------|--------------------------|
D|---2-----2----2-------2---|---2-----2----3-------3---|---2-----2------2-------2-|----2-----2---------------|
A|-3---3------3-----3-------|-3---3------5-----5-------|-0---0------0--------0----|-0-----0--------0-----0---|
E|--------------------------|--------------------------|--------------------------|-------------1-----1------|

B/:

e|----------------0---------|--------------------------|--------------------------|--------------------------|
B|---0h1------1h3-----3-----|---1----------------0-----|---0h1--------------------|--------------------------|
G|-------0----------------0-|-------0--------0-------0-|-------2----------2-------|--------------------------|
D|---2-----2----2-------2---|---2-----2----3-------3---|---2-----2------2-------2-|----2-----2---------------|
A|-3---3------3-----3-------|-3---3------5-----5-------|-0---0------0--------0----|-0-----0--------0-----0---|
E|--------------------------|--------------------------|--------------------------|-------------1-----1------|

C/:

e|--------------------------|--------------------------|--------------------------|--------------------------|
B|--------------------------|--------------------------|---0h1------1-------1-----|---1----------------1-----|
G|--------------------------|--------------------------|-------2--------2-------2-|-------2--------0-------0-|
D|----2-----2-----2-----2---|----2-----2-----3-----3---|---2-----2----2-------2---|---2-----2----2-------2---|
A|-3-----3-----3-----3------|-3-----3-----5-----5------|-0---0------0-----0-------|-0---0--------------------|
E|--------------------------|--------------------------|--------------------------|------------3-----3-------|
            
Submit corrections

↑ Back to top | Tablatures and chords for acoustic guitar and electric guitar, ukulele, drums are parodies/interpretations of the original songs. You may use it for private study, scholarship, research or language learning purposes only