Home » V » Vienna Teng »

Vienna Teng - Oh Mama No Tabs

Artists:  A B C D E F G H I J K L M N O P Q R S T U V W X Y Z # 

Oh Mama No Tabs

(ver. 1) Click to play this song!
Vienna Teng
Tuning: Standard, Capo 6

Intro:
e|----------------------------0---------------------------------0------------|
B|------3-------3-------3---3-----3-------3-------3-------3---3-----3--------|
G|--------0-------0-------0---------0-------0-------0-------0---------0------|
D|---------------------------------------------------------------------------|
A|--3-------3-------3-----------------3-------3-------3----------------------|
E|---------------------------------------------------------------------------|

Verse:
e|----------------------------0---------------------------------0------------|
B|------3-------3-------3---3-----3-------3-------3-------3---3-----3--------|
G|--------0-------0-------0---------0-------0-------0-------0---------0------|
D|---------------------------------------------------------------------------|
A|--3-------3-------3-----------------3-------3-------3----------------------|
E|---------------------------------------------------------------------------|

e|----------------------------2-----------3-----3----------------------------|
B|------3-------3-------3---3-----3---------3-------0-------------0----------|
G|--------0-------0-------2-----------------------------0---0-------0--------|
D|------------------0-----------------2-------2-----------2---0--------------|
A|--3-------3----------------------------------------------------------------|
E|---------------------------------------------------------------------------|

e|----------------------------0-------------------------------0--------------|
B|------1-------1-------1---1-----1---------1-----------0---------0----------|
G|--------2-------2-------2---------2---------2-------0----------------------|
D|----------------------------------------2-------2-------2------------------|
A|--0-------0-------0-----------------0--------------------------------------|
E|---------------------------------------------------------------------------|

Chorus:
e|-----------------------------------------------------------------------------|
B|--------0-------------0---------------0-------------0--------------0-----0---|
G|------0-----0-------0-----0---------0-----0-------0-----0--0-----0-----0---0-|
D|-----------------------------------------------------------------------------|
A|-----------------------------------------------------------------------------|
E|--0-------3-----0-----------3---0-------2-----3-------3------3-------3-------|

Repeat Verse and Chorus

Bridge:
e|---------------------------------------------------------------------------|
B|---------------------------------------------------------------------------|
G|------4-----4-------4-----4-----------4-----4-------4-----4----------------|
D|--------5-----5-------5-----5-----------5-----5-------5-----5--------------|
A|--4-------4-----4-------4-----4---3-------3-----3-------3-----3------------|
E|---------------------------------------------------------------------------|

e|---------------------------------------------------------------------------|
B|------0-----0-------0-----0-----------0-----0-------0-----0----------------|
G|--------2-----2-------2-----2-----------0-----0-------0-----0--------------|
D|--3-------3-----3-------3-----3---2-------2-----2-------2-----2------------|
A|---------------------------------------------------------------------------|
E|---------------------------------------------------------------------------|

e|---------------------------------------------------------------------------|
B|------4-----4-------4-----4-----------4-----4-------4-----4----------------|
G|--------5-----5-------5-----5-----------5-----5-------5-----5--------------|
D|--4-------4-----4-------4-----4---3-------3-----3-------3-----3------------|
A|---------------------------------------------------------------------------|
E|---------------------------------------------------------------------------|

e|--------------------------4---------------4---------------4----------------|
B|------3-----3-------3-------3-------3-------3-------3-------3--------------|
G|--------4-----4-------4-------4-------4-------4-------4-------4------------|
D|--2-------2-----2-------2---------2-----2-------2-------2------------------|
A|---------------------------------------------------------------------------|
E|---------------------------------------------------------------------------|

Verse:
e|----------------------------0---------------------------------0------------|
B|------3-------3-------3---3-----3-------3-------3-------3---3-----3--------|
G|--------0-------0-------0---------0-------0-------0-------0---------0------|
D|---------------------------------------------------------------------------|
A|--3-------3-------3-----------------3-------3-------3----------------------|
E|---------------------------------------------------------------------------|

e|----------------------------2-----------3-----3----------------------------|
B|------3-------3-------3---3-----3---------3-------0-------------0----------|
G|--------0-------0-------2-----------------------------0---0-------0--------|
D|------------------0-----------------2-------2-----------2---0--------------|
A|--3-------3----------------------------------------------------------------|
E|---------------------------------------------------------------------------|

e|----------------------------0----------------------------------------------|
B|------1-------1-------1---1-----1------------------------------------------|
G|--------2-------2-------2---------2---------------------0------------------|
D|------------------------------------------0h2-----0h2h4--------------------|
A|--0-------0-------0-----------------0h2h3-------3--------------------------|
E|---------------------------------------------------------------------------|

e|----------0---------------0------------------------------------------------|
B|----0---------------0------------------------------------------------------|
G|------0-----0---0-----0-----0---0------------------------------------------|
D|--2-----2-----2---2-----2-----2--------------------------------------------|
A|---------------------------------------------------------------------------|
E|---------------------------------------------------------------------------|

End Chorus:
e|---------------------------------------------------------------------------|
B|--------0-------------0---------------0-------------0-----0----------------|
G|------0-----0-------0-----0---------0-----0-------0-----0---0--------------|
D|---------------------------------------------------------------------------|
A|---------------------------------------------------------------------------|
E|--0-------3-----0-----------3---0-------2-----3-------3--------------------|

e|---------------------------------------------------------------------------|
B|--------0-------------0---------------0-------------0-----0----------------|
G|------0-----0-------0-----0---------0-----0-------0-----0---0--------------|
D|---------------------------------------------------------------------------|
A|---------------------------------------------------------------------------|
E|--0-------3-----0-----------3---0-------2-----3-------3--------------------|

e|---------------------------------------------------------------------------|
B|--------0-------------0---------------0------------------------------------|
G|------0-----0-------0-----0---------0-----0--------------------------------|
D|---------------------------------------------------------------------------|
A|---------------------------------------------------------------------------|
E|--0-------3-----0-----------3---0-------2-----3----------------------------|
            
Submit corrections

↑ Back to top | Tablatures and chords for acoustic guitar and electric guitar, ukulele, drums are parodies/interpretations of the original songs. You may use it for private study, scholarship, research or language learning purposes only