» » »

Video Games - Victory Dance Tabs

Artists:  A B C D E F G H I J K L M N O P Q R S T U V W X Y Z # 

Victory Dance Tabs

(ver. 1) Click to play this song!
Video Games
 Rating:
4/5 (4 votes)
                victory dance


tetris






e:-17-17-17-17-17--------------------------------------------------------------------------|
B:----------------19-17----19--17-17-17-17-17----------------------------------------------|
G:----------------------19--------------------18-16-----16h18p16-14h16p14-12h14p12-11h12p11|
D:--------------------------------------------------19-------------------------------------|
A:-----------------------------------------------------------------------------------------|
E:-----------------------------------------------------------------------------------------|

e:----------------------------|
B:----------------------------|
G:-9h11p9--7h9p7--5h7p5--3-3--|
D:----------------------------|
A:----------------------------|
E:----------------------------|

e:-17-17-17-17-17--------------------------------------------------------------------------|
B:----------------19-17----19--17-17-17-17-17----------------------------------------------|
G:----------------------19--------------------18-16-----16h18p16-14h16p14-12h14p12-11h12p11|
D:--------------------------------------------------19-------------------------------------|
A:-----------------------------------------------------------------------------------------|
E:-----------------------------------------------------------------------------------------|

e:----------------------------------|
B:-------------------------------15-|
G:-9h11p9--7h9p7--5h7p5--3-3--10----|
D:----------------------------------|
A:----------------------------------|
E:----------------------------------|
            
Submit corrections

↑ Back to top | Tablatures and chords for acoustic guitar and electric guitar, ukulele, drums are parodies/interpretations of the original songs. You may use it for private study, scholarship, research or language learning purposes only