» » »

Victor Wooten - Isnt She Lovely Tabs

Artists:  A B C D E F G H I J K L M N O P Q R S T U V W X Y Z # 

Isnt She Lovely Tabs

(ver. 1) Click to play this song!
Victor Wooten
 Rating:
4.3/5 (16 votes)

 Isnt She Lovely lessons Tabs too difficult? Try these video lessons and learn fast
 
                  [0:23]
D|-|----------------------------------------------------------------------------------------------|
A|-|----------------------------------------------------------------------------------------------|
F|-|-----8----8--8------6----6--6--------6----6--6---------5----5--5--------4----4--4----4----3---|
C|-|-----6----6--6------5----5--5--------4----4--4---------4----4--4--------2----2--2----2----2---|
G|-|---7----7---------7-----7----------6----6-----------------------------------------------------|
D|-|------------------------------------------------------4----4--------4--0----0--------2---2----|

D|-|--------------------------------|
A|-|--------------------------------|
F|-|---------------------------4-4--|
C|-|------------------4/6--4--------|
G|-|-!2!-------2-4/6-----------2-2--|
D|-|------2-4-----------------------|

tap looper pedal after playing this and let it repeat 2 more times

play this over 2nd repeat while dubbing over 1st loop:


D|-|--------------------------------------------------------------------------------------------------| repeat
A|-|--------------------------------------------------------------------------------------------------| x2
F|-|----------------------------------------------------------------------------------------------4-4-| while
C|-|----------------------------------------------------4/6\4---------------------------4/6--4--------| loop 
G|-|----9--7----------4--2---------4/6\4---------------------4-----!2!-------2-4/6--------------------| plays
D|-|--7--7----------4--4----3-2-------------4---2-----------------------2-4---------------------------|

~~~~~~~~~~~~~~~~~~~~~~~~~~~~~~~~~~~~~~~~~~~~~~~~~~~~~~~~~~~~~~~~~~~~~~~~~~~~~~

cut off loop and play this. There is a second background rhythm but I'm not sure how he played it live 
without recording it in advance. I only tabbed out the more dominant lead part. Sounds fine when you're 
playing along with the video.

D|-|------------------------------------------------------------------|
A|-|------------------------------------------------------------------|
F|-|-----4---4-------------4---4---------3----3---------4----4--3--2--|
C|-|-----4---4-------------3---3---------2----2---------4----4--3--2--| repeat x4
G|-|----------------4/5-4----4---4-3----------------1-2----2----------|
D|-|---4---4---4------------------------2----2----2-------------------|

(1:38) now press play on the looper to play both the 1st loop with the 2nd dubbed loop 
(everything above the
~~~ line, should now be one loop) and let it repeat x5  (This is where I get confused 
because some of the
repeated parts leave out the "!2!" line)
While it's repeating play this...

  [1st repeat (1:38)]
D|-|------------------------------------------------------------------------------------------------|
A|-|------------------------------------------------------------------------------------------------|
F|-|--------------------------------------------------------------------11/13\11--------------------|
C|-|------------------------------------------------------------------------------------13--11--9---|
G|-|-------***--------------------------------------------------------------------------------------|
D|-|------------------------------------------------------------------------------------------------|
(***???ring???+turn volume knob up/down real fast)


  [2nd repeat (1:52)]
D|-|------------------------------------------------------------------------------------------------|
A|-|------------------------------------------------------------------------------------------------|
F|-|------------------------------------------------------------------------------------------------|
C|-|---13b14--11---9/11\9-----13-14--11--9----------------------------------------------------------|
G|-|-----------------------------------------------------9/11\9-------------------------------------|
D|-|------------------------------------------------------------------------------------------------|


  [3rd repeat]
D|-|-------------------------------------------------------------------|
A|-|-------------------------------------------------------------------|
F|-|----------------------13-------------------------------------------|
C|-|---13b14--11---9-11/13-----13b14--11---9--11/13--------------------|
G|-|-------------------------------------------------------------11\9--|
D|-|-------------------------------------------------------------------|


  [4th repeat]
D|-|------------------------------------------------------------------------------------------------|
A|-|------------------------------------------------------------------------------------------------|
F|-|--8.9.11.11--8-9-11-9---8h6h8---6h4--4h6--------------------------------------------------------|
C|-|---------------------------------------------6------6h4-----------------------------------------|
G|-|------------------------------------------------------------------------------------------------|
D|-|------------------------------------------------------------------------------------------------|

  [5th repeat (2:22??)]
D|-|--------------------------------------------------------------|
A|-|--------------------------------------------------------------|
F|-|-----8-9-8-6----------6---------------------------------4-4---|
C|-|---------------9--6-9---6-----------9-----------4/6--4--------|
G|-|-----------------------------9/11\9-----2-4/6-----------2-2---|
D|-|--------------------------------------------------------------|

(unfinished)            
Submit corrections


        Isnt She Lovely lessons Hard to play? Try these video lessons and learn fast Isnt She Lovely lessons
        
↑ Back to top | Tablatures and chords for acoustic guitar and electric guitar, ukulele, drums are parodies/interpretations of the original songs. You may use it for private study, scholarship, research or language learning purposes only