Home » V » Vicente Fernandez »

Vicente Fernandez - Hermoso Carino Tabs

Artists:  A B C D E F G H I J K L M N O P Q R S T U V W X Y Z # 

Hermoso Carino Tabs

(ver. 1) Click to play this song!
Vicente Fernandez
Tuning: Standard


[Intro]

e|---------------------------------------------------------------------------|
B|----6----5----3---1-------------------6-6---5--3---6--6-6---5--3-----------|
G|---------------------(pluck slowly)----------------------------------------|
D|--7----5----3---2---------------------7-7---5--3---7--7-7---5--3-----------|
A|---------------------------------------------------------------------------|
E|---------------------------------------------------------------------------|

e|---------------------------------------------------------------------------|
B|----6--5-----------------------------5--5--5---3---1--1/3--3--3--3--1--0---|
G|----------(x5)(alternate quickly)------------------------------------------|
D|----7--5-----------------------------5--5--5---3---2--2/3--3--3--3--2--0---|
A|---------------------------------------------------------------------------|
E|---------------------------------------------------------------------------|

e|---------------------------------------------------------------------------|
B|--1/3---3--3--3---5--5---6------6----5----3----1---------------------------|
G|----------------------------------------------------(pluck quickly)--------|
D|--2/3---3--3--3---5--5---7----7----5----3----2-----------------------------|
A|---------------------------------------------------------------------------|
E|---------------------------------------------------------------------------|


["C" Pattern]

e|------------------0-0-----------0-0-------0-0------------------------------|
B|------------------1-1-----------1-1-------1-1------------------------------|
G|------------------0-0-----------0-0-------0-0------------------------------|
D|------------------2-2---(x2)----2-2-------2-2------------------------------|("nomas para mi")
A|--------0---3-----3-3-----------3-3----3--3-3------------------------------|
E|-1---3-----------------------3--3-3----------------------------------------|


["G" Pattern]

e|----3---3-------3--3-------------------------------------------------------|
B|----0---0-------0--0-------------------------------------------------------|
G|----0---0-------0--0-------------------------------------------------------|
D|----0---0-------0--0-------------------------------------------------------|("dicha y amor")
A|----2---2----2--2--2-------------------------------------------------------|
E|-3--3---3-------3--3-------------------------------------------------------|


["C" Pattern]

Hermoso carino, hermoso carino
ya estoy como un nino
con nuevo juguete
contento y feliz


["G" Pattern]

no puedo evitarlo
y quiero gritarlo


["C" Pattern]

hermoso carino
Que Dios ha mandado,
nomas para mi


["C" Pattern]

Hermoso carino, hermoso carino
ya estoy como un nino
con nuevo juguete
contento y feliz


["G" Pattern]

no puedo evitarlo
y quiero gritarlo 


["C" Pattern]

hermoso carino
Que Dios ha mandado,
nomas para mi.            
Submit corrections

↑ Back to top | Tablatures and chords for acoustic guitar and electric guitar, ukulele, drums are parodies/interpretations of the original songs. You may use it for private study, scholarship, research or language learning purposes only