» » »

Vic Chesnutt - Onion Soup Tabs

Artists:  A B C D E F G H I J K L M N O P Q R S T U V W X Y Z # 

Onion Soup Tabs

(ver. 1) Click to play this song!
Vic Chesnutt
 Rating:
2/5 (29 votes)

 Onion Soup  lessons Tabs too difficult? Try these video lessons and learn fast
 
                Tuning = Standard


ELECTRIC GUITAR
****************
INTRO
******                                                                   00:22
e|-----------|-------------------------|-------|---------|--------------|------------------------------|-------|
B|-----------|--h------s------h--------|-------|---------|--h------s----|-6-5----------s------h--------|-------|
G|----h--2-5-|-2-5-2--5\7-5--2-5-2-0---|--s----|--h--2-5-|-2-5-2--5\7-~~|-----5---5-2-5\7-5--2-5-2-0---|--s----|
D|-3-3-5-----|-----------------------3-|-5\7-3-|-3-5-----|--------------|----------------------------3-|-5\7-3-|
A|-----------|-------------------------|-------|---------|--------------|------------------------------|-------|
E|-----------|-------------------------|-------|---------|--------------|------------------------------|-------|


e|---------|---------|
B|---------|--s------|
G|--h--2-5-|-5\7-7---|
D|-3-5-----|-------8-|
A|---------|---------|
E|---------|---------|            
Submit corrections


        Onion Soup  lessons Hard to play? Try these video lessons and learn fast Onion Soup  lessons
        
↑ Back to top | Tablatures and chords for acoustic guitar and electric guitar, ukulele, drums are parodies/interpretations of the original songs. You may use it for private study, scholarship, research or language learning purposes only