» » »

Veto - Can You See Anything Tabs

Artists:  A B C D E F G H I J K L M N O P Q R S T U V W X Y Z # 

Can You See Anything Tabs

(ver. 1) Click to play this song!
Veto
 Rating:
4/5 (7 votes)


 Can You See Anything lessons Tabs too difficult? Try these video lessons and learn fast
 
                

Intro:
e:|---------------------------|:
B:|---------------------------|:
G:|---------------------------|:
D:|---------------------------|:
A:|--4--4--4----7--7--7---9/4-|:
E:|-6--6--6--6/9--9--9---11/5-|:

1. Vers:
e:|------------------------------------|:
B:|------------------------------------|:
G:|------------------------------------|: x2
D:|------------------------------------|:
A:|--4--4--4--4--4--4----7--7--7---9/4-|:
E:|-5--5--5--6--6--6--6/9--9--9---11/5-|:
Can you see anything now...

1. Chorus:
e:|------------------------------------|:
B:|------------------------------------|:
G:|------------------------------------|:
D:|------------------------------------|:
A:|--4--4--4--4--4--4----7--7--7---9/4-|:
E:|-5--5--5--6--6--6--6/9--9--9---11/5-|:
You have to stay here for the night...

1. Bridge and 2. vers there's no guitar

2. Chorus:
e:|--------------------------------|:
B:|--------------------------------|:
G:|--------------------------------|:
D:|--------------------------------|:
A:|-4--------4--------7---------9--|:
E:|-5--------6--------9---------11-|:
You have to stay here for the night...

2. Bridge:   
e:|----------------------------------|:    :|----------|:
B:|----------------------------------|:    :|----------|:
G:|----------------------------------|: x3 :|----------|:
D:|----------------------------------|:    :|----------|:
A:|--4--4--4--4--4--4--7--7--7---9/4-|:    :|-4--------|:
E:|-5--5--5--6--6--6--9--9--9---11/5-|:    :|-5--------|:

Break

Outro/3. Bridge:
e:|---------------------------|:  :|-----------------------------------|:    
B:|---------------------------|:  :|-----------------------------------|:    
G:|---------------------------|:  :|-----------------------------------|: x8 
D:|-8-8-8-8-11-11-11-11-13-13-|:  :|-7-7-7-7-8-8-8-8-11-11-11-11-13-13-|:    
A:|-8-8-8-8-11-11-11-11-13-13-|:  :|-7-7-7-7-8-8-8-8-11-11-11-11-13-13-|:    
E:|-6-6-6-6-9--9--9--9--11-11-|:  :|-5-5-5-5-6-6-6-6-9--9--9--9--11-11-|:    

e:|--------|:
B:|--------|:
G:|--------|:
D:|-7------|:
A:|-7------|:
E:|-5------|:

Listen to the song, to get the right rythm...
            
Submit corrections



        Can You See Anything lessons Hard to play? Try these video lessons and learn fast Can You See Anything lessons
        
↑ Back to top | Tablatures and chords for acoustic guitar and electric guitar, ukulele, drums are parodies/interpretations of the original songs. You may use it for private study, scholarship, research or language learning purposes only