» » »

Verve Pipe - Villains Tabs

Artists:  A B C D E F G H I J K L M N O P Q R S T U V W X Y Z # 

Villains Tabs

(ver. 2) Click to play this song!
Verve Pipe
 Rating:
4/5 (4 votes)

 Villains lessons Tabs too difficult? Try these video lessons and learn fast
 
                
d strum down
u strum up
/ slide up
\ slide down
b bend

Stardard tuning

--|-------------------------------------------------|-------------------------|
--|-------------------------------------------------|-------------------------|
--|-------------------------------------------------|-------------------------|
--|-------------------------------------------------|-------------------------|
--|-11------12---14---17-17---------17---------17---|-------------------------|
--|-0-------0----0----0--0----0--0--0----0--0--0--0-|-------------------------|
   Riff 1

--|-------------------------------------------------|-------------------------|
--|-------------------------------------------------|-------------------------|
--|---1--1--x/--x/------------7--7-------7--7-------|-------------------------|
--|-------------------------------------------------|-------------------------|
--|-------------------------------------------------|-------------------------|
--|-------------------------------------------------|-------------------------|


--|--------------------------------------------------|------------------------|
--|--------------------------------------------------|------------------------|
--|--------------------------------------------------|------------------------|
--|-11------12---14---17-17---------17---------17----|------------------------|
--|-0-------0----0----0--0----0--0--0----0--0--0-----|------------------------|
--|-----------------------------------------------0--|------------------------|
   Riff 2

--|--------------------------------------------------|------------------------|
--|--------------------------------------------------|------------------------|
--|----6--6-7--/-9------------12-12------12-12-------|------------------------|
--|--------------------------------------------------|------------------------|
--|--------------------------------------------------|------------------------|
--|--------------------------------------------------|------------------------|
            d    d

--|--------------------------------------------------|------------------------|
--|--------------------------------------------------|------------------------|
--|--------------------------------------------------|------------------------|
--|--------------------------------------------------|------------------------|
--|-11------12---14---17-17--------------------------|------------------------|
--|-0-------0----0----0--0---------------------------|------------------------|


--|-------------------------------------------------|-------------------------|
--|-------------------------------------------------|-------------------------|
--|---1--1--2--/-4----7--7--------------------------|-------------------------|
--|-------------------------------------------------|-------------------------|
--|-------------------------------------------------|-------------------------|
--|-------------------------------------------------|-------------------------|


--|-------------------------------------|-------------------------------------|
--|-------------------------------------|-------------------------------------|
--|-------------------------------------|-------------------------------------|
--|-17----16----12-14---12---11-12-14---|-------------------------------------|
--|-0-----0-----0--0----0----0--0--0----|-------------------------------------|
--|-----------------------------------0-|-------------------------------------|
   Riff 3

--|-------------------------------------|-------------------------------------|
--|-------------------------------------|-------------------------------------|
--|-12----11----7--9----7----6--7--9----|-------------------------------------|
--|-------------------------------------|-------------------------------------|
--|-------------------------------------|-------------------------------------|
--|-------------------------------------|-------------------------------------|


-------|------------------------------|---------------------------------------|
-------|------------------------------|---------------------------------------|
-------|----11-11--12--14--6--7-/9----|---------------------------------------|
-------|-0-----0---0---0--------------|---------------------------------------|
-------|-------------------0----------|---------------------------------------|
-------|----------------------------0-|---------------------------------------|
  Riff 4"See how they trist and shout"

--|-------------------------------|-------------------------------------------|
--|-------------------------------|-------------------------------------------|
--|----x--------------------------|-------------------------------------------|
--|----x--------------------------|-------------------------------------------|
--|----x--------------------------|-------------------------------------------|
--|----x--------------------------|-------------------------------------------|
       Scratching on the 12th fret

--|------|------|------|------|------|------|-----------------------------|---|
--|------|------|------|------|------|------|-----------------------------|---|
--|------|------|------|------|------|------|----11-11--12--14------------|---|
--|------|------|------|------|------|------|-0-----0---0---0---12--12-11-|---|
--|------|------|------|------|------|------|-------------------0---0--0--|---|
--|------|------|------|------|------|------|-----------------------------|---|
   Riff 1 Riff 3 Riff 1 Riff 3 Riff 1 Riff 4

--|---------|-----------------------|-------------------------------|---------|
--|-11b-11b-|-----------------------|-------------------------------|---------|
--|---------|-----------------------|-------------------------------|---------|
--|---------|-----------------------|-------------------------------|---------|
--|---------|-----------------------|-------------------------------|---------|
--|---------|-----------------------|-------------------------------|---------|
   Riff 1     Repeat sequence above   Riff 1 While Distortion solo

--|-------------------------------------|-------------------------------------|
--|-------------------------------------|-------------------------------------|
--|-------------------------------------|-------------------------------------|
--|-------------------------------------|-------------------------------------|
--|-11---12---14---17-17-17-17-17-17-17-|-------------------------------------|
--|-0----0----0----0--0--0--0--0--0--0--|-------------------------------------|
                     "See how they..."
            
Submit corrections


        Villains lessons Hard to play? Try these video lessons and learn fast Villains lessons
        
↑ Back to top | Tablatures and chords for acoustic guitar and electric guitar, ukulele, drums are parodies/interpretations of the original songs. You may use it for private study, scholarship, research or language learning purposes only